  0
SECTION
  2
HEADER
  9
$ACADVER
  1
AC1015
  9
$ACADMAINTVER
 70
    20
  9
$DWGCODEPAGE
  3
ANSI_1252
  9
$INSBASE
 10
0.0
 20
0.0
 30
0.0
  9
$EXTMIN
 10
-4.999999999999999
 20
0.0000000000000006
 30
0.0
  9
$EXTMAX
 10
11.0
 20
20.0
 30
0.0
  9
$LIMMIN
 10
0.0
 20
0.0
  9
$LIMMAX
 10
21000.0
 20
16000.0
  9
$ORTHOMODE
 70
     0
  9
$REGENMODE
 70
     1
  9
$FILLMODE
 70
     1
  9
$QTEXTMODE
 70
     0
  9
$MIRRTEXT
 70
     1
  9
$LTSCALE
 40
5.0
  9
$ATTMODE
 70
     1
  9
$TEXTSIZE
 40
20.0
  9
$TRACEWID
 40
1.0
  9
$TEXTSTYLE
  7
NORM
  9
$CLAYER
  8
BEMASSUNG
  9
$CELTYPE
  6
ByLayer
  9
$CECOLOR
 62
   256
  9
$CELTSCALE
 40
1.0
  9
$DISPSILH
 70
     0
  9
$DIMSCALE
 40
1.0
  9
$DIMASZ
 40
4.0
  9
$DIMEXO
 40
2.0
  9
$DIMDLI
 40
7.0
  9
$DIMRND
 40
0.0
  9
$DIMDLE
 40
50.0
  9
$DIMEXE
 40
1.0
  9
$DIMTP
 40
0.0
  9
$DIMTM
 40
0.3
  9
$DIMTXT
 40
3.5
  9
$DIMCEN
 40
0.2
  9
$DIMTSZ
 40
0.0
  9
$DIMTOL
 70
     0
  9
$DIMLIM
 70
     0
  9
$DIMTIH
 70
     0
  9
$DIMTOH
 70
     1
  9
$DIMSE1
 70
     0
  9
$DIMSE2
 70
     0
  9
$DIMTAD
 70
     1
  9
$DIMZIN
 70
    12
  9
$DIMBLK
  1

  9
$DIMASO
 70
     1
  9
$DIMSHO
 70
     1
  9
$DIMPOST
  1

  9
$DIMAPOST
  1

  9
$DIMALT
 70
     0
  9
$DIMALTD
 70
     2
  9
$DIMALTF
 40
25.39999999999999
  9
$DIMLFAC
 40
1.0
  9
$DIMTOFL
 70
     0
  9
$DIMTVP
 40
0.0
  9
$DIMTIX
 70
     0
  9
$DIMSOXD
 70
     1
  9
$DIMSAH
 70
     0
  9
$DIMBLK1
  1

  9
$DIMBLK2
  1

  9
$DIMSTYLE
  2
BEMA
  9
$DIMCLRD
 70
     0
  9
$DIMCLRE
 70
     0
  9
$DIMCLRT
 70
     0
  9
$DIMTFAC
 40
0.6666666666666666
  9
$DIMGAP
 40
1.0
  9
$DIMJUST
 70
     0
  9
$DIMSD1
 70
     0
  9
$DIMSD2
 70
     0
  9
$DIMTOLJ
 70
     1
  9
$DIMTZIN
 70
     8
  9
$DIMALTZ
 70
     8
  9
$DIMALTTZ
 70
     8
  9
$DIMUPT
 70
     0
  9
$DIMDEC
 70
     2
  9
$DIMTDEC
 70
     2
  9
$DIMALTU
 70
     2
  9
$DIMALTTD
 70
     2
  9
$DIMTXSTY
  7
STANDARD
  9
$DIMAUNIT
 70
     0
  9
$DIMADEC
 70
     2
  9
$DIMALTRND
 40
0.0
  9
$DIMAZIN
 70
     0
  9
$DIMDSEP
 70
    46
  9
$DIMATFIT
 70
     3
  9
$DIMFRAC
 70
     0
  9
$DIMLDRBLK
  1

  9
$DIMLUNIT
 70
     2
  9
$DIMLWD
 70
    -2
  9
$DIMLWE
 70
    -2
  9
$DIMTMOVE
 70
     0
  9
$LUNITS
 70
     2
  9
$LUPREC
 70
     2
  9
$SKETCHINC
 40
1.0
  9
$FILLETRAD
 40
3.0
  9
$AUNITS
 70
     0
  9
$AUPREC
 70
     2
  9
$MENU
  1
CADIM
  9
$ELEVATION
 40
0.0
  9
$PELEVATION
 40
0.0
  9
$THICKNESS
 40
0.0
  9
$LIMCHECK
 70
     0
  9
$CHAMFERA
 40
0.0
  9
$CHAMFERB
 40
0.0
  9
$CHAMFERC
 40
0.0
  9
$CHAMFERD
 40
0.0
  9
$SKPOLY
 70
     0
  9
$TDCREATE
 40
2451766.297739352
  9
$TDUCREATE
 40
2451766.256072685
  9
$TDUPDATE
 40
2455183.519421782
  9
$TDUUPDATE
 40
2455183.477755116
  9
$TDINDWG
 40
0.3296213079
  9
$TDUSRTIMER
 40
0.3296213079
  9
$USRTIMER
 70
     1
  9
$ANGBASE
 50
0.0
  9
$ANGDIR
 70
     0
  9
$PDMODE
 70
     0
  9
$PDSIZE
 40
-2.0
  9
$PLINEWID
 40
0.0
  9
$SPLFRAME
 70
     0
  9
$SPLINETYPE
 70
     6
  9
$SPLINESEGS
 70
     8
  9
$HANDSEED
  5
166A0B99A42C6C2
  9
$SURFTAB1
 70
    16
  9
$SURFTAB2
 70
    16
  9
$SURFTYPE
 70
     6
  9
$SURFU
 70
    12
  9
$SURFV
 70
    12
  9
$UCSBASE
  2

  9
$UCSNAME
  2

  9
$UCSORG
 10
0.0
 20
0.0
 30
0.0
  9
$UCSXDIR
 10
1.0
 20
0.0
 30
0.0
  9
$UCSYDIR
 10
0.0
 20
1.0
 30
0.0
  9
$UCSORTHOREF
  2

  9
$UCSORTHOVIEW
 70
     0
  9
$UCSORGTOP
 10
0.0
 20
0.0
 30
0.0
  9
$UCSORGBOTTOM
 10
0.0
 20
0.0
 30
0.0
  9
$UCSORGLEFT
 10
0.0
 20
0.0
 30
0.0
  9
$UCSORGRIGHT
 10
0.0
 20
0.0
 30
0.0
  9
$UCSORGFRONT
 10
0.0
 20
0.0
 30
0.0
  9
$UCSORGBACK
 10
0.0
 20
0.0
 30
0.0
  9
$PUCSBASE
  2

  9
$PUCSNAME
  2

  9
$PUCSORG
 10
0.0
 20
0.0
 30
0.0
  9
$PUCSXDIR
 10
1.0
 20
0.0
 30
0.0
  9
$PUCSYDIR
 10
0.0
 20
1.0
 30
0.0
  9
$PUCSORTHOREF
  2

  9
$PUCSORTHOVIEW
 70
     0
  9
$PUCSORGTOP
 10
0.0
 20
0.0
 30
0.0
  9
$PUCSORGBOTTOM
 10
0.0
 20
0.0
 30
0.0
  9
$PUCSORGLEFT
 10
0.0
 20
0.0
 30
0.0
  9
$PUCSORGRIGHT
 10
0.0
 20
0.0
 30
0.0
  9
$PUCSORGFRONT
 10
0.0
 20
0.0
 30
0.0
  9
$PUCSORGBACK
 10
0.0
 20
0.0
 30
0.0
  9
$USERI1
 70
     0
  9
$USERI2
 70
   100
  9
$USERI3
 70
     0
  9
$USERI4
 70
     0
  9
$USERI5
 70
     0
  9
$USERR1
 40
0.0
  9
$USERR2
 40
0.0
  9
$USERR3
 40
0.0
  9
$USERR4
 40
0.0
  9
$USERR5
 40
0.0
  9
$WORLDVIEW
 70
     0
  9
$SHADEDGE
 70
     3
  9
$SHADEDIF
 70
    70
  9
$TILEMODE
 70
     1
  9
$MAXACTVP
 70
    16
  9
$PINSBASE
 10
0.0
 20
0.0
 30
0.0
  9
$PLIMCHECK
 70
     0
  9
$PEXTMIN
 10
28.68718400001525
 20
19.99191756248477
 30
0.0
  9
$PEXTMAX
 10
258.1846560001373
 20
179.9272580623627
 30
0.0
  9
$PLIMMIN
 10
-5.027069091796875
 20
-5.027082920074462
  9
$PLIMMAX
 10
291.89892578125
 20
204.9462447166443
  9
$UNITMODE
 70
     0
  9
$VISRETAIN
 70
     0
  9
$PLINEGEN
 70
     0
  9
$PSLTSCALE
 70
     1
  9
$TREEDEPTH
 70
  3020
  9
$CMLSTYLE
  2
Standard
  9
$CMLJUST
 70
     0
  9
$CMLSCALE
 40
1.0
  9
$PROXYGRAPHICS
 70
     1
  9
$MEASUREMENT
 70
     1
  9
$CELWEIGHT
370
    -1
  9
$ENDCAPS
280
     0
  9
$JOINSTYLE
280
     0
  9
$LWDISPLAY
290
     0
  9
$INSUNITS
 70
     0
  9
$HYPERLINKBASE
  1

  9
$STYLESHEET
  1

  9
$XEDIT
290
     1
  9
$CEPSNTYPE
380
     0
  9
$PSTYLEMODE
290
     1
  9
$FINGERPRINTGUID
  2
{4EF4371F-C4B1-422E-858C-0DDDEA999727}
  9
$VERSIONGUID
  2
{572CA15F-6B62-432E-B6E3-229BCAE24CED}
  9
$EXTNAMES
290
     1
  9
$PSVPSCALE
 40
0.0
  9
$OLESTARTUP
290
     0
  0
ENDSEC
  0
SECTION
  2
CLASSES
  0
CLASS
  1
ACDBDICTIONARYWDFLT
  2
AcDbDictionaryWithDefault
  3
ObjectDBX Classes
 90
        0
280
     0
281
     0
  0
CLASS
  1
ACDBPLACEHOLDER
  2
AcDbPlaceHolder
  3
ObjectDBX Classes
 90
        0
280
     0
281
     0
  0
CLASS
  1
LAYOUT
  2
AcDbLayout
  3
ObjectDBX Classes
 90
        0
280
     0
281
     0
  0
CLASS
  1
DICTIONARYVAR
  2
AcDbDictionaryVar
  3
ObjectDBX Classes
 90
        0
280
     0
281
     0
  0
CLASS
  1
MATERIAL
  2
AcDbMaterial
  3
ObjectDBX Classes
 90
     1153
280
     0
281
     0
  0
CLASS
  1
VISUALSTYLE
  2
AcDbVisualStyle
  3
ObjectDBX Classes
 90
     4095
280
     0
281
     0
  0
CLASS
  1
TABLESTYLE
  2
AcDbTableStyle
  3
ObjectDBX Classes
 90
     4095
280
     0
281
     0
  0
CLASS
  1
Ks_BoltStyle
  2
Ks_BoltStyle
  3
Pro_Stahl_3d
 90
        0
280
     0
281
     0
  0
CLASS
  1
SORTENTSTABLE
  2
AcDbSortentsTable
  3
ObjectDBX Classes
 90
        0
280
     0
281
     0
  0
CLASS
  1
DIMASSOC
  2
AcDbDimAssoc
  3
"AcDbDimAssoc|Product Desc:     AcDim ARX App For Dimension|Company:          Autodesk, Inc.|WEB Address:      www.autodesk.com"
 90
    32768
280
     0
281
     0
  0
CLASS
  1
SOLID_BACKGROUND
  2
AcDbSolidBackground
  3
SCENEOE
 90
    36863
280
     0
281
     0
  0
CLASS
  1
NPOCOLLECTION
  2
AcDbImpNonPersistentObjectsCollection
  3
ObjectDBX Classes
 90
    33921
280
     0
281
     0
  0
CLASS
  1
Ks_WeldStyle
  2
Ks_WeldStyle
  3
Pro_Stahl_3d
 90
    32768
280
     0
281
     0
  0
CLASS
  1
Ks_KoteflagStyle
  2
Ks_KoteflagStyle
  3
Pro_Stahl_3d
 90
    32768
280
     0
281
     0
  0
CLASS
  1
Ks_PosflagStyle
  2
Ks_PosflagStyle
  3
Pro_Stahl_3d
 90
    32768
280
     0
281
     0
  0
CLASS
  1
SCALE
  2
AcDbScale
  3
ObjectDBX Classes
 90
     1153
280
     0
281
     0
  0
CLASS
  1
MLEADERSTYLE
  2
AcDbMLeaderStyle
  3
ACDB_MLEADERSTYLE_CLASS
 90
     4095
280
     0
281
     0
  0
CLASS
  1
CELLSTYLEMAP
  2
AcDbCellStyleMap
  3
ObjectDBX Classes
 90
     1152
280
     0
281
     0
  0
ENDSEC
  0
SECTION
  2
TABLES
  0
TABLE
  2
VPORT
  5
166A0B99A429B9D
102
{ACAD_XDICTIONARY
360
166A0B99A42A201
102
}
330
0
100
AcDbSymbolTable
 70
     1
  0
VPORT
  5
166A0B99A429E5B
330
166A0B99A429B9D
100
AcDbSymbolTableRecord
100
AcDbViewportTableRecord
  2
*ACTIVE
 70
     0
 10
0.0
 20
0.0
 11
1.0
 21
1.0
 12
6.955057314135405
 22
6.590337665332029
 13
0.0
 23
0.0
 14
1.0
 24
1.0
 15
10.0
 25
10.0
 16
0.0
 26
0.0
 36
1.0
 17
0.0
 27
0.0
 37
0.0
 40
49.274373961354
 41
1.231552162849872
 42
50.0
 43
0.0
 44
0.0
 50
0.0
 51
0.0
 71
     0
 72
   100
 73
     1
 74
     3
 75
     0
 76
     1
 77
     0
 78
     0
281
     0
 65
     1
110
0.0
120
0.0
130
0.0
111
1.0
121
0.0
131
0.0
112
0.0
122
1.0
132
0.0
 79
     0
146
0.0
  0
ENDTAB
  0
TABLE
  2
LTYPE
  5
166A0B99A429B9A
330
0
100
AcDbSymbolTable
 70
     9
  0
LTYPE
  5
166A0B99A429BA8
330
166A0B99A429B9A
100
AcDbSymbolTableRecord
100
AcDbLinetypeTableRecord
  2
ByBlock
 70
     0
  3

 72
    65
 73
     0
 40
0.0
  0
LTYPE
  5
166A0B99A429BA9
330
166A0B99A429B9A
100
AcDbSymbolTableRecord
100
AcDbLinetypeTableRecord
  2
ByLayer
 70
     0
  3

 72
    65
 73
     0
 40
0.0
  0
LTYPE
  5
166A0B99A429BAA
330
166A0B99A429B9A
100
AcDbSymbolTableRecord
100
AcDbLinetypeTableRecord
  2
CONTINUOUS
 70
     0
  3
Solid line
 72
    65
 73
     0
 40
0.0
  0
LTYPE
  5
166A0B99A429E4C
330
166A0B99A429B9A
100
AcDbSymbolTableRecord
100
AcDbLinetypeTableRecord
  2
STRICHPUNKT2
 70
     0
  3
_._._._._._._._._._._._._._._._._._._._._._._._
 72
    65
 73
     4
 40
0.5
 49
0.25
 74
     0
 49
-0.125
 74
     0
 49
0.0
 74
     0
 49
-0.125
 74
     0
  0
LTYPE
  5
166A0B99A429E4D
330
166A0B99A429B9A
100
AcDbSymbolTableRecord
100
AcDbLinetypeTableRecord
  2
GESTRICHELT2
 70
     0
  3
_ _ _ _ _ _ _ _ _ _ _ _ _ _ _ _ _ _ _ _ _ _ _ _
 72
    65
 73
     2
 40
0.375
 49
0.25
 74
     0
 49
-0.125
 74
     0
  0
LTYPE
  5
166A0B99A429EA8
330
166A0B99A429B9A
100
AcDbSymbolTableRecord
100
AcDbLinetypeTableRecord
  2
MITTE
 70
     0
  3
____ _ ____ _ ____ _ ____ _ ____ _ ____ _ ____ 
 72
    65
 73
     4
 40
2.0
 49
1.25
 74
     0
 49
-0.25
 74
     0
 49
0.25
 74
     0
 49
-0.25
 74
     0
  0
LTYPE
  5
166A0B99A429EAB
330
166A0B99A429B9A
100
AcDbSymbolTableRecord
100
AcDbLinetypeTableRecord
  2
HIDDEN
 70
     0
  3
__ __ __ __ __ __ __ __ __ __ __ __ __ __ __ __
 72
    65
 73
     2
 40
0.375
 49
0.25
 74
     0
 49
-0.125
 74
     0
  0
LTYPE
  5
166A0B99A42A381
330
166A0B99A429B9A
100
AcDbSymbolTableRecord
100
AcDbLinetypeTableRecord
  2
VERDECKT
 70
     0
  3
Verdeckt __ __ __ __ __ __ __ __ __ __ __ __ __
 72
    65
 73
     2
 40
0.375
 49
0.25
 74
     0
 49
-0.125
 74
     0
  0
LTYPE
  5
166A0B99A42A382
330
166A0B99A429B9A
100
AcDbSymbolTableRecord
100
AcDbLinetypeTableRecord
  2
ACAD_ISO10W100
 70
     0
  3
ISO Strichpunktlinie __ . __ . __ . __ . __ . _
 72
    65
 73
     4
 40
18.0
 49
12.0
 74
     0
 49
-3.0
 74
     0
 49
0.0
 74
     0
 49
-3.0
 74
     0
  0
LTYPE
  5
166A0B99A42A384
330
166A0B99A429B9A
100
AcDbSymbolTableRecord
100
AcDbLinetypeTableRecord
  2
AUSGEZOGEN
 70
     0
  3
Ausgezogene Linie
 72
    65
 73
     0
 40
0.0
  0
ENDTAB
  0
TABLE
  2
LAYER
  5
166A0B99A429B97
102
{ACAD_XDICTIONARY
360
166A0B99A429ECC
102
}
330
0
100
AcDbSymbolTable
 70
    43
  0
LAYER
  5
166A0B99A429BA5
102
{ACAD_XDICTIONARY
360
166A0B99A42C660
102
}
330
166A0B99A429B97
100
AcDbSymbolTableRecord
100
AcDbLayerTableRecord
  2
0
 70
     0
 62
     7
  6
CONTINUOUS
370
    -3
390
166A0B99A429BA4
  0
LAYER
  5
166A0B99A429E63
102
{ACAD_XDICTIONARY
360
166A0B99A42C662
102
}
330
166A0B99A429B97
100
AcDbSymbolTableRecord
100
AcDbLayerTableRecord
  2
ACA_VARSAVE
 70
     4
 62
     7
  6
CONTINUOUS
370
    -3
390
166A0B99A429BA4
  0
LAYER
  5
166A0B99A429E64
102
{ACAD_XDICTIONARY
360
166A0B99A42C664
102
}
330
166A0B99A429B97
100
AcDbSymbolTableRecord
100
AcDbLayerTableRecord
  2
BEMASSUNG
 70
     0
 62
     7
  6
CONTINUOUS
370
    -3
390
166A0B99A429BA4
  0
LAYER
  5
166A0B99A429E65
102
{ACAD_XDICTIONARY
360
166A0B99A42C666
102
}
330
166A0B99A429B97
100
AcDbSymbolTableRecord
100
AcDbLayerTableRecord
  2
RAHMEN_-PSPAC_
 70
     0
 62
     7
  6
CONTINUOUS
370
    -3
390
166A0B99A429BA4
  0
LAYER
  5
166A0B99A429E67
102
{ACAD_XDICTIONARY
360
166A0B99A42C668
102
}
330
166A0B99A429B97
100
AcDbSymbolTableRecord
100
AcDbLayerTableRecord
  2
BEM2
 70
     0
 62
     1
  6
CONTINUOUS
370
    -3
390
166A0B99A429BA4
  0
LAYER
  5
166A0B99A429E68
102
{ACAD_XDICTIONARY
360
166A0B99A42C66A
102
}
330
166A0B99A429B97
100
AcDbSymbolTableRecord
100
AcDbLayerTableRecord
  2
KONTUR
 70
     0
 62
     3
  6
CONTINUOUS
370
    50
390
166A0B99A429BA4
  0
LAYER
  5
166A0B99A429E69
102
{ACAD_XDICTIONARY
360
166A0B99A42C66C
102
}
330
166A0B99A429B97
100
AcDbSymbolTableRecord
100
AcDbLayerTableRecord
  2
HILFSKONSTR
 70
     0
 62
     7
  6
STRICHPUNKT2
370
    -3
390
166A0B99A429BA4
  0
LAYER
  5
166A0B99A429E6A
330
166A0B99A429B97
100
AcDbSymbolTableRecord
100
AcDbLayerTableRecord
  2
DEFPOINTS
 70
     0
 62
     7
  6
CONTINUOUS
290
     0
370
    -3
390
166A0B99A429BA4
  0
LAYER
  5
166A0B99A429E6B
102
{ACAD_XDICTIONARY
360
166A0B99A42C66E
102
}
330
166A0B99A429B97
100
AcDbSymbolTableRecord
100
AcDbLayerTableRecord
  2
ZUBEHOER
 70
     0
 62
     7
  6
CONTINUOUS
370
    -3
390
166A0B99A429BA4
  0
LAYER
  5
166A0B99A429E6C
102
{ACAD_XDICTIONARY
360
166A0B99A42C670
102
}
330
166A0B99A429B97
100
AcDbSymbolTableRecord
100
AcDbLayerTableRecord
  2
RAHMEN
 70
     0
 62
     7
  6
CONTINUOUS
370
    -3
390
166A0B99A429BA4
  0
LAYER
  5
166A0B99A429E6D
102
{ACAD_XDICTIONARY
360
166A0B99A42C672
102
}
330
166A0B99A429B97
100
AcDbSymbolTableRecord
100
AcDbLayerTableRecord
  2
KNOTEN
 70
     0
 62
     7
  6
CONTINUOUS
370
    -3
390
166A0B99A429BA4
  0
LAYER
  5
166A0B99A429E6E
102
{ACAD_XDICTIONARY
360
166A0B99A42C674
102
}
330
166A0B99A429B97
100
AcDbSymbolTableRecord
100
AcDbLayerTableRecord
  2
ASHADE
 70
     0
 62
     7
  6
CONTINUOUS
370
    -3
390
166A0B99A429BA4
  0
LAYER
  5
166A0B99A429E6F
102
{ACAD_XDICTIONARY
360
166A0B99A42C676
102
}
330
166A0B99A429B97
100
AcDbSymbolTableRecord
100
AcDbLayerTableRecord
  2
PHANTOM
 70
     0
 62
     7
  6
GESTRICHELT2
370
    -3
390
166A0B99A429BA4
  0
LAYER
  5
166A0B99A429E70
102
{ACAD_XDICTIONARY
360
166A0B99A42C678
102
}
330
166A0B99A429B97
100
AcDbSymbolTableRecord
100
AcDbLayerTableRecord
  2
TEXT
 70
     0
 62
     7
  6
CONTINUOUS
370
    -3
390
166A0B99A429BA4
  0
LAYER
  5
166A0B99A429E71
102
{ACAD_XDICTIONARY
360
166A0B99A42C67A
102
}
330
166A0B99A429B97
100
AcDbSymbolTableRecord
100
AcDbLayerTableRecord
  2
HILFSPROFIL
 70
     0
 62
     3
  6
CONTINUOUS
370
    -3
390
166A0B99A429BA4
  0
LAYER
  5
166A0B99A429EA2
102
{ACAD_XDICTIONARY
360
166A0B99A42C67C
102
}
330
166A0B99A429B97
100
AcDbSymbolTableRecord
100
AcDbLayerTableRecord
  2
PS_PROFIL
 70
     0
 62
   161
  6
CONTINUOUS
370
    -3
390
166A0B99A429BA4
  0
LAYER
  5
166A0B99A429EA3
102
{ACAD_XDICTIONARY
360
166A0B99A42C67E
102
}
330
166A0B99A429B97
100
AcDbSymbolTableRecord
100
AcDbLayerTableRecord
  2
PS_RAHMEN
 70
     0
 62
     6
  6
CONTINUOUS
370
    -3
390
166A0B99A429BA4
  0
LAYER
  5
166A0B99A429EA4
102
{ACAD_XDICTIONARY
360
166A0B99A42C680
102
}
330
166A0B99A429B97
100
AcDbSymbolTableRecord
100
AcDbLayerTableRecord
  2
PS_KONST
 70
     0
 62
     2
  6
CONTINUOUS
370
    -3
390
166A0B99A429BA4
  0
LAYER
  5
166A0B99A429EA5
102
{ACAD_XDICTIONARY
360
166A0B99A42C682
102
}
330
166A0B99A429B97
100
AcDbSymbolTableRecord
100
AcDbLayerTableRecord
  2
PS_PLATTE
 70
     0
 62
    35
  6
CONTINUOUS
370
    -3
390
166A0B99A429BA4
  0
LAYER
  5
166A0B99A429EA6
102
{ACAD_XDICTIONARY
360
166A0B99A42C684
102
}
330
166A0B99A429B97
100
AcDbSymbolTableRecord
100
AcDbLayerTableRecord
  2
PS_SCHRAUBE
 70
     0
 62
     4
  6
CONTINUOUS
370
    -3
390
166A0B99A429BA4
  0
LAYER
  5
166A0B99A429EA7
102
{ACAD_XDICTIONARY
360
166A0B99A42C686
102
}
330
166A0B99A429B97
100
AcDbSymbolTableRecord
100
AcDbLayerTableRecord
  2
PS_BEMAS
 70
     0
 62
     4
  6
CONTINUOUS
370
    -3
390
166A0B99A429BA4
  0
LAYER
  5
166A0B99A429EA9
102
{ACAD_XDICTIONARY
360
166A0B99A42C688
102
}
330
166A0B99A429B97
100
AcDbSymbolTableRecord
100
AcDbLayerTableRecord
  2
PS_MITTE
 70
     0
 62
     5
  6
MITTE
370
    -3
390
166A0B99A429BA4
  0
LAYER
  5
166A0B99A429EAA
102
{ACAD_XDICTIONARY
360
166A0B99A42C68A
102
}
330
166A0B99A429B97
100
AcDbSymbolTableRecord
100
AcDbLayerTableRecord
  2
PS_VOLL
 70
     0
 62
     7
  6
CONTINUOUS
370
    -3
390
166A0B99A429BA4
  0
LAYER
  5
166A0B99A429EAC
102
{ACAD_XDICTIONARY
360
166A0B99A42C68C
102
}
330
166A0B99A429B97
100
AcDbSymbolTableRecord
100
AcDbLayerTableRecord
  2
PS_VERDECKT
 70
     0
 62
     2
  6
HIDDEN
370
    -3
390
166A0B99A429BA4
  0
LAYER
  5
166A0B99A429EAD
102
{ACAD_XDICTIONARY
360
166A0B99A42C68E
102
}
330
166A0B99A429B97
100
AcDbSymbolTableRecord
100
AcDbLayerTableRecord
  2
PS_POS
 70
     0
 62
     1
  6
CONTINUOUS
370
    -3
390
166A0B99A429BA4
  0
LAYER
  5
166A0B99A429EAE
102
{ACAD_XDICTIONARY
360
166A0B99A42C690
102
}
330
166A0B99A429B97
100
AcDbSymbolTableRecord
100
AcDbLayerTableRecord
  2
PS_SCHWEIS
 70
     0
 62
     1
  6
CONTINUOUS
370
    -3
390
166A0B99A429BA4
  0
LAYER
  5
166A0B99A429EAF
102
{ACAD_XDICTIONARY
360
166A0B99A42C692
102
}
330
166A0B99A429B97
100
AcDbSymbolTableRecord
100
AcDbLayerTableRecord
  2
PS_DAWA
 70
     0
 62
     5
  6
CONTINUOUS
370
    -3
390
166A0B99A429BA4
  0
LAYER
  5
166A0B99A429EB0
102
{ACAD_XDICTIONARY
360
166A0B99A42C694
102
}
330
166A0B99A429B97
100
AcDbSymbolTableRecord
100
AcDbLayerTableRecord
  2
PS_KOTE
 70
     0
 62
     4
  6
CONTINUOUS
370
    -3
390
166A0B99A429BA4
  0
LAYER
  5
166A0B99A429EB1
102
{ACAD_XDICTIONARY
360
166A0B99A42C696
102
}
330
166A0B99A429B97
100
AcDbSymbolTableRecord
100
AcDbLayerTableRecord
  2
PS_TEXT
 70
     0
 62
     7
  6
CONTINUOUS
370
    -3
390
166A0B99A429BA4
  0
LAYER
  5
166A0B99A429EB2
102
{ACAD_XDICTIONARY
360
166A0B99A42C698
102
}
330
166A0B99A429B97
100
AcDbSymbolTableRecord
100
AcDbLayerTableRecord
  2
PS_SCHRAFF
 70
     0
 62
     3
  6
CONTINUOUS
370
    -3
390
166A0B99A429BA4
  0
LAYER
  5
166A0B99A429EB3
102
{ACAD_XDICTIONARY
360
166A0B99A42C69A
102
}
330
166A0B99A429B97
100
AcDbSymbolTableRecord
100
AcDbLayerTableRecord
  2
PS_OBJECT
 70
     0
 62
     2
  6
CONTINUOUS
370
    -3
390
166A0B99A429BA4
  0
LAYER
  5
166A0B99A429EB4
102
{ACAD_XDICTIONARY
360
166A0B99A42C69C
102
}
330
166A0B99A429B97
100
AcDbSymbolTableRecord
100
AcDbLayerTableRecord
  2
PC_CONCRETE
 70
     0
 62
     4
  6
CONTINUOUS
370
    -3
390
166A0B99A429BA4
  0
LAYER
  5
166A0B99A429EB5
102
{ACAD_XDICTIONARY
360
166A0B99A42C69E
102
}
330
166A0B99A429B97
100
AcDbSymbolTableRecord
100
AcDbLayerTableRecord
  2
PC_REBAR
 70
     0
 62
     5
  6
CONTINUOUS
370
    -3
390
166A0B99A429BA4
  0
LAYER
  5
166A0B99A42A388
102
{ACAD_XDICTIONARY
360
166A0B99A42C6A0
102
}
330
166A0B99A429B97
100
AcDbSymbolTableRecord
100
AcDbLayerTableRecord
  2
_A Fenster
 70
     0
 62
     7
  6
CONTINUOUS
290
     0
370
    -3
390
166A0B99A429BA4
  0
LAYER
  5
166A0B99A42A38B
102
{ACAD_XDICTIONARY
360
166A0B99A42C6A2
102
}
330
166A0B99A429B97
100
AcDbSymbolTableRecord
100
AcDbLayerTableRecord
  2
Umriss050
 70
     0
 62
     3
  6
CONTINUOUS
370
    50
390
166A0B99A429BA4
  0
LAYER
  5
166A0B99A42A38C
102
{ACAD_XDICTIONARY
360
166A0B99A42C6A4
102
}
330
166A0B99A429B97
100
AcDbSymbolTableRecord
100
AcDbLayerTableRecord
  2
Umriss025
 70
     0
 62
     7
  6
CONTINUOUS
370
    25
390
166A0B99A429BA4
  0
LAYER
  5
166A0B99A42A38D
102
{ACAD_XDICTIONARY
360
166A0B99A42C6A6
102
}
330
166A0B99A429B97
100
AcDbSymbolTableRecord
100
AcDbLayerTableRecord
  2
Achsen
 70
     0
 62
     7
  6
ACAD_ISO10W100
370
    -3
390
166A0B99A429BA4
  0
LAYER
  5
166A0B99A42A38E
102
{ACAD_XDICTIONARY
360
166A0B99A42C6A8
102
}
330
166A0B99A429B97
100
AcDbSymbolTableRecord
100
AcDbLayerTableRecord
  2
UMRISS05
 70
     0
 62
     1
  6
CONTINUOUS
370
    -3
390
166A0B99A429BA4
  0
LAYER
  5
166A0B99A42A38F
102
{ACAD_XDICTIONARY
360
166A0B99A42C6AA
102
}
330
166A0B99A429B97
100
AcDbSymbolTableRecord
100
AcDbLayerTableRecord
  2
UMRISS02
 70
     0
 62
     7
  6
CONTINUOUS
370
    -3
390
166A0B99A429BA4
  0
LAYER
  5
166A0B99A42A390
102
{ACAD_XDICTIONARY
360
166A0B99A42C6AC
102
}
330
166A0B99A429B97
100
AcDbSymbolTableRecord
100
AcDbLayerTableRecord
  2
UMRISS03
 70
     0
 62
     2
  6
AUSGEZOGEN
370
    -3
390
166A0B99A429BA4
  0
LAYER
  5
166A0B99A42A392
102
{ACAD_XDICTIONARY
360
166A0B99A42C6AE
102
}
330
166A0B99A429B97
100
AcDbSymbolTableRecord
100
AcDbLayerTableRecord
  2
TEXT03
 70
     0
 62
     2
  6
AUSGEZOGEN
370
    -3
390
166A0B99A429BA4
  0
LAYER
  5
166A0B99A42A393
102
{ACAD_XDICTIONARY
360
166A0B99A42C6B0
102
}
330
166A0B99A429B97
100
AcDbSymbolTableRecord
100
AcDbLayerTableRecord
  2
ABKANTUNG
 70
     0
 62
     1
  6
AUSGEZOGEN
370
    -3
390
166A0B99A429BA4
  0
LAYER
  5
166A0B99A42C16D
102
{ACAD_XDICTIONARY
360
166A0B99A42C6B2
102
}
330
166A0B99A429B97
100
AcDbSymbolTableRecord
100
AcDbLayerTableRecord
  2
Sichtfläche
 70
     0
 62
   150
  6
GESTRICHELT2
370
    -3
390
166A0B99A429BA4
1001
AcAecLayerStandard
1000

1000

  0
ENDTAB
  0
TABLE
  2
STYLE
  5
166A0B99A429B98
330
0
100
AcDbSymbolTable
 70
     6
  0
STYLE
  5
166A0B99A429BA6
330
166A0B99A429B98
100
AcDbSymbolTableRecord
100
AcDbTextStyleTableRecord
  2
STANDARD
 70
     0
 40
0.0
 41
1.0
 50
0.0
 71
     0
 42
3.5
  3
txt
  4

  0
STYLE
  5
166A0B99A429E49
330
166A0B99A429B98
100
AcDbSymbolTableRecord
100
AcDbTextStyleTableRecord
  2
NORM
 70
     0
 40
0.0
 41
1.0
 50
0.0
 71
     0
 42
20.0
  3
iso8
  4

  0
STYLE
  5
166A0B99A429E4B
330
166A0B99A429B98
100
AcDbSymbolTableRecord
100
AcDbTextStyleTableRecord
  2
SANSSERIFBOLD
 70
     0
 40
0.0
 41
1.0
 50
0.0
 71
     0
 42
10.0
  3
sasb____.pfb
  4

  0
STYLE
  5
166A0B99A42A395
330
166A0B99A429B98
100
AcDbSymbolTableRecord
100
AcDbTextStyleTableRecord
  2
ISO8
 70
     0
 40
15.0
 41
1.0
 50
0.0
 71
     0
 42
15.0
  3
isocp.shx
  4

  0
STYLE
  5
166A0B99A42A396
330
166A0B99A429B98
100
AcDbSymbolTableRecord
100
AcDbTextStyleTableRecord
  2
MONO
 70
     0
 40
0.0
 41
1.0
 50
0.0
 71
     0
 42
3.5
  3
MONOTXT
  4

  0
STYLE
  5
166A0B99A42A397
330
166A0B99A429B98
100
AcDbSymbolTableRecord
100
AcDbTextStyleTableRecord
  2
MODUL
 70
     0
 40
15.0
 41
1.0
 50
0.0
 71
     0
 42
15.0
  3
isocp.shx
  4

  0
ENDTAB
  0
TABLE
  2
VIEW
  5
166A0B99A429B9B
330
0
100
AcDbSymbolTable
 70
    14
  0
VIEW
  5
166A0B99A429E4E
330
166A0B99A429B9B
100
AcDbSymbolTableRecord
100
AcDbViewTableRecord
  2
ALL
 70
     0
 40
297.0
 10
210.0
 20
148.5
 41
420.0
 11
0.0
 21
0.0
 31
1.0
 12
0.0
 22
0.0
 32
0.0
 42
50.0
 43
0.0
 44
0.0
 50
0.0
 71
     0
281
     0
 72
     0
  0
VIEW
  5
166A0B99A429E4F
330
166A0B99A429B9B
100
AcDbSymbolTableRecord
100
AcDbViewTableRecord
  2
UL
 70
     0
 40
108.9
 10
77.0
 20
54.45
 41
154.0
 11
0.0
 21
0.0
 31
1.0
 12
0.0
 22
0.0
 32
0.0
 42
50.0
 43
0.0
 44
0.0
 50
0.0
 71
     0
281
     0
 72
     0
  0
VIEW
  5
166A0B99A429E50
330
166A0B99A429B9B
100
AcDbSymbolTableRecord
100
AcDbViewTableRecord
  2
UR
 70
     0
 40
108.9
 10
343.0
 20
54.45
 41
154.0
 11
0.0
 21
0.0
 31
1.0
 12
0.0
 22
0.0
 32
0.0
 42
50.0
 43
0.0
 44
0.0
 50
0.0
 71
     0
281
     0
 72
     0
  0
VIEW
  5
166A0B99A429E51
330
166A0B99A429B9B
100
AcDbSymbolTableRecord
100
AcDbViewTableRecord
  2
OR
 70
     0
 40
108.9
 10
343.0
 20
242.55
 41
154.0
 11
0.0
 21
0.0
 31
1.0
 12
0.0
 22
0.0
 32
0.0
 42
50.0
 43
0.0
 44
0.0
 50
0.0
 71
     0
281
     0
 72
     0
  0
VIEW
  5
166A0B99A429E52
330
166A0B99A429B9B
100
AcDbSymbolTableRecord
100
AcDbViewTableRecord
  2
OL
 70
     0
 40
108.9
 10
77.0
 20
242.55
 41
154.0
 11
0.0
 21
0.0
 31
1.0
 12
0.0
 22
0.0
 32
0.0
 42
50.0
 43
0.0
 44
0.0
 50
0.0
 71
     0
281
     0
 72
     0
  0
VIEW
  5
166A0B99A429E53
330
166A0B99A429B9B
100
AcDbSymbolTableRecord
100
AcDbViewTableRecord
  2
ML
 70
     0
 40
118.8
 10
77.0
 20
148.5
 41
154.0
 11
0.0
 21
0.0
 31
1.0
 12
0.0
 22
0.0
 32
0.0
 42
50.0
 43
0.0
 44
0.0
 50
0.0
 71
     0
281
     0
 72
     0
  0
VIEW
  5
166A0B99A429E54
330
166A0B99A429B9B
100
AcDbSymbolTableRecord
100
AcDbViewTableRecord
  2
UM
 70
     0
 40
108.9
 10
210.0
 20
54.45
 41
168.0
 11
0.0
 21
0.0
 31
1.0
 12
0.0
 22
0.0
 32
0.0
 42
50.0
 43
0.0
 44
0.0
 50
0.0
 71
     0
281
     0
 72
     0
  0
VIEW
  5
166A0B99A429E55
330
166A0B99A429B9B
100
AcDbSymbolTableRecord
100
AcDbViewTableRecord
  2
MM
 70
     0
 40
118.8
 10
210.0
 20
148.5
 41
168.0
 11
0.0
 21
0.0
 31
1.0
 12
0.0
 22
0.0
 32
0.0
 42
50.0
 43
0.0
 44
0.0
 50
0.0
 71
     0
281
     0
 72
     0
  0
VIEW
  5
166A0B99A429E56
330
166A0B99A429B9B
100
AcDbSymbolTableRecord
100
AcDbViewTableRecord
  2
OM
 70
     0
 40
108.9
 10
210.0
 20
242.55
 41
168.0
 11
0.0
 21
0.0
 31
1.0
 12
0.0
 22
0.0
 32
0.0
 42
50.0
 43
0.0
 44
0.0
 50
0.0
 71
     0
281
     0
 72
     0
  0
VIEW
  5
166A0B99A429E57
330
166A0B99A429B9B
100
AcDbSymbolTableRecord
100
AcDbViewTableRecord
  2
MR
 70
     0
 40
118.8
 10
343.0
 20
148.5
 41
154.0
 11
0.0
 21
0.0
 31
1.0
 12
0.0
 22
0.0
 32
0.0
 42
50.0
 43
0.0
 44
0.0
 50
0.0
 71
     0
281
     0
 72
     0
  0
VIEW
  5
166A0B99A429E58
330
166A0B99A429B9B
100
AcDbSymbolTableRecord
100
AcDbViewTableRecord
  2
KOPF
 70
     0
 40
107.227850683348
 10
103.569635024973
 20
-157.2802264670693
 41
148.0519480519479
 11
0.0
 21
0.0
 31
1.0
 12
244.8919034365651
 22
208.6080965634348
 32
28.32621741859042
 42
50.0
 43
0.0
 44
0.0
 50
0.0
 71
     0
281
     0
 72
     0
  0
VIEW
  5
166A0B99A429E59
330
166A0B99A429B9B
100
AcDbSymbolTableRecord
100
AcDbViewTableRecord
  2
ALL_-PSPAC_
 70
     1
 40
307.0
 10
210.0
 20
148.5
 41
430.0
 11
0.0
 21
0.0
 31
1.0
 12
0.0
 22
0.0
 32
0.0
 42
50.0
 43
0.0
 44
0.0
 50
0.0
 71
     0
281
     0
 72
     0
  0
VIEW
  5
166A0B99A429E5A
330
166A0B99A429B9B
100
AcDbSymbolTableRecord
100
AcDbViewTableRecord
  2
BTA2-106
 70
     0
 40
386.1
 10
213.0456124943356
 20
148.5
 41
552.0912249886713
 11
0.0
 21
0.0
 31
1.0
 12
0.0
 22
0.0
 32
0.0
 42
50.0
 43
0.0
 44
0.0
 50
0.0
 71
     0
281
     0
 72
     0
  0
ENDTAB
  0
TABLE
  2
UCS
  5
166A0B99A429B9C
330
0
100
AcDbSymbolTable
 70
     0
  0
ENDTAB
  0
TABLE
  2
APPID
  5
166A0B99A429B9E
330
0
100
AcDbSymbolTable
 70
    14
  0
APPID
  5
166A0B99A429BA7
330
166A0B99A429B9E
100
AcDbSymbolTableRecord
100
AcDbRegAppTableRecord
  2
ACAD
 70
     0
  0
APPID
  5
166A0B99A429E5C
330
166A0B99A429B9E
100
AcDbSymbolTableRecord
100
AcDbRegAppTableRecord
  2
ACA_CADIMENU
 70
     0
  0
APPID
  5
166A0B99A429E5D
330
166A0B99A429B9E
100
AcDbSymbolTableRecord
100
AcDbRegAppTableRecord
  2
AVE_RENDER
 70
     0
  0
APPID
  5
166A0B99A429E7B
330
166A0B99A429B9E
100
AcDbSymbolTableRecord
100
AcDbRegAppTableRecord
  2
DCO15
 70
     0
  0
APPID
  5
166A0B99A429EB6
330
166A0B99A429B9E
100
AcDbSymbolTableRecord
100
AcDbRegAppTableRecord
  2
ProSteel3d_Bg
 70
     0
  0
APPID
  5
166A0B99A429EB7
330
166A0B99A429B9E
100
AcDbSymbolTableRecord
100
AcDbRegAppTableRecord
  2
ProSteel3d_Sp
 70
     0
  0
APPID
  5
166A0B99A429EB8
330
166A0B99A429B9E
100
AcDbSymbolTableRecord
100
AcDbRegAppTableRecord
  2
ProSteel3d_DetDimEed
 70
     0
  0
APPID
  5
166A0B99A429F37
330
166A0B99A429B9E
100
AcDbSymbolTableRecord
100
AcDbRegAppTableRecord
  2
ACAD_EXEMPT_FROM_CAD_STANDARDS
 70
     0
  0
APPID
  5
166A0B99A42A1AB
330
166A0B99A429B9E
100
AcDbSymbolTableRecord
100
AcDbRegAppTableRecord
  2
ACAD_PSEXT
 70
     0
  0
APPID
  5
166A0B99A42AA18
330
166A0B99A429B9E
100
AcDbSymbolTableRecord
100
AcDbRegAppTableRecord
  2
ACAD_DIMASSOC_CALC_DIMLFAC
 70
     0
  0
APPID
  5
166A0B99A42AA19
330
166A0B99A429B9E
100
AcDbSymbolTableRecord
100
AcDbRegAppTableRecord
  2
ACAD_DIMASSOC_DIMLFAC
 70
     0
  0
APPID
  5
166A0B99A42AA1A
330
166A0B99A429B9E
100
AcDbSymbolTableRecord
100
AcDbRegAppTableRecord
  2
ACAD_DIMASSOC_OVERRIDDEN_DIMLFAC
 70
     0
  0
APPID
  5
166A0B99A42C16E
330
166A0B99A429B9E
100
AcDbSymbolTableRecord
100
AcDbRegAppTableRecord
  2
AcAecLayerStandard
 70
     0
  0
APPID
  5
166A0B99A42C62F
330
166A0B99A429B9E
100
AcDbSymbolTableRecord
100
AcDbRegAppTableRecord
  2
ACAD_MLEADERVER
 70
     0
  0
ENDTAB
  0
TABLE
  2
DIMSTYLE
  5
166A0B99A429B9F
330
0
100
AcDbSymbolTable
 70
     4
100
AcDbDimStyleTable
 71
     1
340
166A0B99A429E5E
  0
DIMSTYLE
105
166A0B99A429E5E
330
166A0B99A429B9F
100
AcDbSymbolTableRecord
100
AcDbDimStyleTableRecord
  2
BEMA
 70
     0
 41
4.0
 42
2.0
 43
7.0
 44
1.0
 46
50.0
 48
0.3
 73
     0
 77
     1
 78
    12
140
3.5
141
0.2
143
25.39999999999999
146
0.6666666666666666
147
1.0
175
     1
179
     2
271
     2
272
     2
284
     8
285
     8
286
     8
340
166A0B99A429BA6
  0
DIMSTYLE
105
166A0B99A42B4B3
330
166A0B99A429B9F
100
AcDbSymbolTableRecord
100
AcDbDimStyleTableRecord
  2
ISO-25
 70
     0
 41
2.5
 42
0.625
 43
3.75
 44
1.25
 73
     0
 74
     0
 77
     1
 78
     8
140
2.5
141
2.5
143
0.03937007874016
147
0.625
171
     3
172
     1
271
     2
272
     2
274
     3
278
    44
283
     0
284
     8
340
166A0B99A429BA6
  0
DIMSTYLE
105
166A0B99A42B4B4
330
166A0B99A429B9F
100
AcDbSymbolTableRecord
100
AcDbDimStyleTableRecord
  2
Standard
 70
     0
340
166A0B99A429BA6
  0
ENDTAB
  0
TABLE
  2
BLOCK_RECORD
  5
166A0B99A429B96
330
0
100
AcDbSymbolTable
 70
    23
  0
BLOCK_RECORD
  5
166A0B99A429BB3
102
{ACAD_XDICTIONARY
360
166A0B99A429EDB
102
}
330
166A0B99A429B96
100
AcDbSymbolTableRecord
100
AcDbBlockTableRecord
  2
*Model_Space
340
166A0B99A429BB6
  0
BLOCK_RECORD
  5
166A0B99A42C5E4
330
166A0B99A429B96
100
AcDbSymbolTableRecord
100
AcDbBlockTableRecord
  2
*Paper_Space
340
166A0B99A42C5E5
  0
BLOCK_RECORD
  5
166A0B99A429BB7
330
166A0B99A429B96
100
AcDbSymbolTableRecord
100
AcDbBlockTableRecord
  2
ACA_CFG
340
0
102
{BLKREFS
331
2229
102
}
  0
BLOCK_RECORD
  5
166A0B99A429BB8
330
166A0B99A429B96
100
AcDbSymbolTableRecord
100
AcDbBlockTableRecord
  2
ACA_SAVE_DONT_PURGE
340
0
102
{BLKREFS
331
166A0B99A4244F3
331
166A0B99A424974
331
166A0B99A424975
331
166A0B99A424976
331
166A0B99A4249B9
331
166A0B99A4249DC
331
166A0B99A4249DD
331
166A0B99A424A71
331
166A0B99A424F50
102
}
  0
BLOCK_RECORD
  5
166A0B99A429BB9
330
166A0B99A429B96
100
AcDbSymbolTableRecord
100
AcDbBlockTableRecord
  2
BURKHARD
340
0
102
{BLKREFS
331
FD790
102
}
  0
BLOCK_RECORD
  5
166A0B99A429BBA
330
166A0B99A429B96
100
AcDbSymbolTableRecord
100
AcDbBlockTableRecord
  2
BEM
340
0
102
{BLKREFS
331
DE67E
102
}
  0
BLOCK_RECORD
  5
166A0B99A429BBB
330
166A0B99A429B96
100
AcDbSymbolTableRecord
100
AcDbBlockTableRecord
  2
PUNKT
340
0
  0
BLOCK_RECORD
  5
166A0B99A429BBC
330
166A0B99A429B96
100
AcDbSymbolTableRecord
100
AcDbBlockTableRecord
  2
AVE_RENDER
340
0
102
{BLKREFS
331
166A0B99A422409
331
166A0B99A42240A
331
166A0B99A42240B
102
}
  0
BLOCK_RECORD
  5
166A0B99A429BBD
330
166A0B99A429B96
100
AcDbSymbolTableRecord
100
AcDbBlockTableRecord
  2
S81
340
0
  0
BLOCK_RECORD
  5
166A0B99A42A27E
330
166A0B99A429B96
100
AcDbSymbolTableRecord
100
AcDbBlockTableRecord
  2
X
340
0
  0
BLOCK_RECORD
  5
166A0B99A42BECB
330
166A0B99A429B96
100
AcDbSymbolTableRecord
100
AcDbBlockTableRecord
  2
*D8
340
0
  0
BLOCK_RECORD
  5
166A0B99A42BEE3
330
166A0B99A429B96
100
AcDbSymbolTableRecord
100
AcDbBlockTableRecord
  2
*D9
340
0
  0
BLOCK_RECORD
  5
166A0B99A42BEFB
330
166A0B99A429B96
100
AcDbSymbolTableRecord
100
AcDbBlockTableRecord
  2
*D10
340
0
  0
BLOCK_RECORD
  5
166A0B99A42BF13
330
166A0B99A429B96
100
AcDbSymbolTableRecord
100
AcDbBlockTableRecord
  2
*D11
340
0
  0
BLOCK_RECORD
  5
166A0B99A42BF87
330
166A0B99A429B96
100
AcDbSymbolTableRecord
100
AcDbBlockTableRecord
  2
*D12
340
0
  0
BLOCK_RECORD
  5
166A0B99A42BF9F
330
166A0B99A429B96
100
AcDbSymbolTableRecord
100
AcDbBlockTableRecord
  2
*D13
340
0
  0
BLOCK_RECORD
  5
166A0B99A42BFB7
330
166A0B99A429B96
100
AcDbSymbolTableRecord
100
AcDbBlockTableRecord
  2
*D14
340
0
  0
BLOCK_RECORD
  5
166A0B99A42BFCF
330
166A0B99A429B96
100
AcDbSymbolTableRecord
100
AcDbBlockTableRecord
  2
*D15
340
0
  0
BLOCK_RECORD
  5
166A0B99A42C005
102
{ACAD_XDICTIONARY
360
166A0B99A42C007
102
}
330
166A0B99A429B96
100
AcDbSymbolTableRecord
100
AcDbBlockTableRecord
  2
A$C5E9553D4
340
0
  0
BLOCK_RECORD
  5
166A0B99A42C080
330
166A0B99A429B96
100
AcDbSymbolTableRecord
100
AcDbBlockTableRecord
  2
*D17
340
0
  0
BLOCK_RECORD
  5
166A0B99A42C0B0
330
166A0B99A429B96
100
AcDbSymbolTableRecord
100
AcDbBlockTableRecord
  2
*D18
340
0
  0
BLOCK_RECORD
  5
166A0B99A42C0C8
330
166A0B99A429B96
100
AcDbSymbolTableRecord
100
AcDbBlockTableRecord
  2
*D19
340
0
  0
BLOCK_RECORD
  5
166A0B99A42C0E9
330
166A0B99A429B96
100
AcDbSymbolTableRecord
100
AcDbBlockTableRecord
  2
*D20
340
0
  0
BLOCK_RECORD
  5
166A0B99A42C109
330
166A0B99A429B96
100
AcDbSymbolTableRecord
100
AcDbBlockTableRecord
  2
*D21
340
0
  0
ENDTAB
  0
ENDSEC
  0
SECTION
  2
BLOCKS
  0
BLOCK
  5
166A0B99A429E74
330
166A0B99A429BB3
100
AcDbEntity
  8
0
100
AcDbBlockBegin
  2
*Model_Space
 70
     0
 10
0.0
 20
0.0
 30
0.0
  3
*Model_Space
  1

  0
ENDBLK
  5
166A0B99A429E75
330
166A0B99A429BB3
100
AcDbEntity
  8
0
100
AcDbBlockEnd
  0
BLOCK
  5
166A0B99A42C5E6
330
166A0B99A42C5E4
100
AcDbEntity
 67
     1
  8
0
100
AcDbBlockBegin
  2
*Paper_Space
 70
     0
 10
0.0
 20
0.0
 30
0.0
  3
*Paper_Space
  1

  0
ENDBLK
  5
166A0B99A42C5E7
330
166A0B99A42C5E4
100
AcDbEntity
 67
     1
  8
0
100
AcDbBlockEnd
  0
BLOCK
  5
2225
330
166A0B99A429BB7
100
AcDbEntity
  8
0
100
AcDbBlockBegin
  2
ACA_CFG
 70
     0
 10
0.0
 20
0.0
 30
0.0
  3
ACA_CFG
  1
ACA_CFG
  0
ENDBLK
  5
2226
330
166A0B99A429BB7
100
AcDbEntity
  8
0
100
AcDbBlockEnd
  0
BLOCK
  5
2228
330
166A0B99A429BB8
100
AcDbEntity
  8
0
100
AcDbBlockBegin
  2
ACA_SAVE_DONT_PURGE
 70
     0
 10
0.0
 20
0.0
 30
0.0
  3
ACA_SAVE_DONT_PURGE
  1

  0
INSERT
  5
2229
330
166A0B99A429BB8
100
AcDbEntity
  8
ACA_VARSAVE
100
AcDbBlockReference
  2
ACA_CFG
 10
0.0
 20
0.0
 30
0.0
1001
ACA_CADIMENU
1000
ACA_CFG
1002
{
1000
ACA_V:LAY-GRCODE
1000

1002
}
1002
{
1000
ACA_V:LAY-GRDEL1
1000
_-
1002
}
1002
{
1000
ACA_V:LAY-GRDEL2
1000
_
1002
}
1002
{
1000
ACA_V:LAY-MLAST
1000

1002
}
1002
{
1000
ACA_V:LAY-PRE
1000

1002
}
1002
{
1000
ACA_V:LAY-PRELIST
1000
.nil.
1002
}
1002
{
1000
ACA_V:ZEIN
1040
1.0
1002
}
1002
{
1000
ACA_V:EINH
1000
mm
1002
}
1002
{
1000
ACA_V:Mass
1040
1.0
1002
}
1002
{
1000
ACA_V:EIFA
1040
1.0
1002
}
1002
{
1000
ACA_V:PDIS
1000
 mm
1002
}
1002
{
1000
ACA_V:PARE
1000
 qmm
1002
}
1002
{
1000
ACA_V:FFA1
1040
1.0
1002
}
1002
{
1000
ACA_V:FDR1
1000
0.0
1002
}
1002
{
1000
ACA_V:FXF1
1040
1.0
1002
}
1002
{
1000
ACA_V:FYF1
1040
1.0
1002
}
1002
{
1000
ACA_V:FZF1
1040
1.0
1002
}
1002
{
1000
ACA_V:THT2
1040
2.5
1002
}
1002
{
1000
ACA_V:THT3
1040
3.5
1002
}
1002
{
1000
ACA_V:THT5
1040
5.0
1002
}
1002
{
1000
ACA_V:THT7
1040
7.0
1002
}
1002
{
1000
ACA_V:THT1
1040
10.0
1002
}
1002
{
1000
ACA_V:ZSi
1070
    15
1002
}
1002
{
1000
ACA_V:F-CADI
1000
CM1
1002
}
1002
{
1000
ACA_V:F-CAD1
1000
B
1002
}
1002
{
1000
ACA_V:F-CAD3
1000
A
1002
}
1002
{
1000
ACA_L:ABBI
1000
ABBIEGEKANT
1002
}
1002
{
1000
ACA_L:ACHS
1000
ACHSEN
1002
}
1002
{
1000
ACA_L:ATRI
1000
ATTRIBUTE
1002
}
1002
{
1000
ACA_L:AVER
1000
AVERDECKTE
1002
}
1002
{
1000
ACA_L:A-AL
1000
ABBIEGEKANT*,*ACHSEN*,*AVERDECKTE*,*AVERDECKTE*
1002
}
1002
{
1000
ACA_L:BEMA
1000
BEMASSUNG
1002
}
1002
{
1000
ACA_L:BEMT
1000
BEMTEXT
1002
}
1002
{
1000
ACA_L:B-AL
1000
BEM*
1002
}
1002
{
1000
ACA_L:HIKO
1000
HILFSKONSTR
1002
}
1002
{
1000
ACA_L:HILI
1000
HILFSLINIEN
1002
}
1002
{
1000
ACA_L:HIPU
1000
HILFSPUNKTE
1002
}
1002
{
1000
ACA_L:H-AL
1000
HILFS*
1002
}
1002
{
1000
ACA_L:KO03
1000
KOPF03
1002
}
1002
{
1000
ACA_L:KO05
1000
KOPF05
1002
}
1002
{
1000
ACA_L:KO07
1000
KOPF07
1002
}
1002
{
1000
ACA_L:KO10
1000
KOPF10
1002
}
1002
{
1000
ACA_L:K-AL
1000
KOPF*
1002
}
1002
{
1000
ACA_L:SCHR
1000
SCHRAFFUR
1002
}
1002
{
1000
ACA_L:TE02
1000
LB0
1002
}
1002
{
1000
ACA_L:TE03
1000
LB1
1002
}
1002
{
1000
ACA_L:TE05
1000
LB2
1002
}
1002
{
1000
ACA_L:TE07
1000
LB3
1002
}
1002
{
1000
ACA_L:TE10
1000
LB4
1002
}
1002
{
1000
ACA_L:T-AL
1000
LB5
1002
}
1002
{
1000
ACA_L:UM02
1000
TEPPICH
1002
}
1002
{
1000
ACA_L:UM03
1000
WAND
1002
}
1002
{
1000
ACA_L:UM05
1000
PROFIL
1002
}
1002
{
1000
ACA_L:UM07
1000
ZARGE
1002
}
1002
{
1000
ACA_L:UM10
1000
BLENDE
1002
}
1002
{
1000
ACA_L:U-AL
1000
GLAS
1002
}
1002
{
1000
ACA_L:2225
1000
LC0
1002
}
1002
{
1000
ACA_L:2226
1000
LC1
1002
}
1002
{
1000
ACA_L:2227
1000
LC2
1002
}
1002
{
1000
ACA_L:2228
1000
LC3
1002
}
1002
{
1000
ACA_L:2230
1000
LC5
1002
}
1002
{
1000
ACA_L:2239
1000
0
1002
}
1002
{
1000
ACA_L:2240
1000
*
1002
}
1002
{
1000
ACA_L:2241
1000
LD2
1002
}
1002
{
1000
ACA_L:2242
1000
LD3
1002
}
1002
{
1000
ACA_L:2243
1000
.nil.
1002
}
1002
{
1000
ACA_L:2244
1000
S-*,*SCHRAFF*
1002
}
  0
ENDBLK
  5
222A
330
166A0B99A429BB8
100
AcDbEntity
  8
0
100
AcDbBlockEnd
  0
BLOCK
  5
BFBC1
330
166A0B99A429BB9
100
AcDbEntity
  8
0
100
AcDbBlockBegin
  2
BURKHARD
 70
     0
 10
0.0
 20
0.0
 30
0.0
  3
BURKHARD
  1

  0
INSERT
  5
DE67E
330
166A0B99A429BB9
100
AcDbEntity
  8
0
100
AcDbBlockReference
  2
BEM
 10
8875.0
 20
5375.0
 30
0.0
  0
ENDBLK
  5
FD78F
330
166A0B99A429BB9
100
AcDbEntity
  8
0
100
AcDbBlockEnd
  0
BLOCK
  5
CEDCD
330
166A0B99A429BBA
100
AcDbEntity
  8
0
100
AcDbBlockBegin
  2
BEM
 70
     0
 10
0.0
 20
0.0
 30
0.0
  3
BEM
  1

  0
ENDBLK
  5
DE67D
330
166A0B99A429BBA
100
AcDbEntity
  8
0
100
AcDbBlockEnd
  0
BLOCK
  5
166A057B848FD28
330
166A0B99A429BBB
100
AcDbEntity
  8
0
100
AcDbBlockBegin
  2
PUNKT
 70
     0
 10
0.0
 20
0.0
 30
0.0
  3
PUNKT
  1

  0
LWPOLYLINE
  5
166A057B848FD29
330
166A0B99A429BBB
100
AcDbEntity
  8
BEMASSUNG
  6
ByBlock
 62
     0
100
AcDbPolyline
 90
        2
 70
     1
 43
0.5
 10
-0.25
 20
0.0
 42
1.0
 10
0.25
 20
0.0
 42
1.0
  0
LINE
  5
166A057B848FD2D
330
166A0B99A429BBB
100
AcDbEntity
  8
BEMASSUNG
  6
ByBlock
 62
     0
100
AcDbLine
 10
-0.5
 20
0.0
 30
0.0
 11
-1.0
 21
0.0
 31
0.0
  0
ENDBLK
  5
166A057B848FD2E
330
166A0B99A429BBB
100
AcDbEntity
  8
0
100
AcDbBlockEnd
  0
BLOCK
  5
166A070309A8D41
330
166A0B99A429BBC
100
AcDbEntity
  8
0
100
AcDbBlockBegin
  2
AVE_RENDER
 70
     0
 10
0.0
 20
0.0
 30
0.0
  3
AVE_RENDER
  1
AVE_RENDER
  0
ENDBLK
  5
166A070309A8D42
330
166A0B99A429BBC
100
AcDbEntity
  8
0
100
AcDbBlockEnd
  0
BLOCK
  5
166A07030A668AE
330
166A0B99A429BBD
100
AcDbEntity
  8
0
100
AcDbBlockBegin
  2
S81
 70
     0
 10
0.0
 20
0.0
 30
0.0
  3
S81
  1

  0
LWPOLYLINE
  5
166A07030A668AF
330
166A0B99A429BBD
100
AcDbEntity
  8
KONTUR
100
AcDbPolyline
 90
      188
 70
     1
 43
0.0
 10
17.49170288707722
 20
6.24401449754731
 10
18.92863157479036
 20
2.76536686473014
 10
21.2868514936888
 20
5.123586783628581
 10
22.70106505606191
 20
3.709373221255487
 10
18.99169183480632
 20
-0.0000000000000711
 10
13.74584591740318
 20
0.0
 10
13.74584591740318
 20
2.0
 10
17.08087250976774
 20
2.0
 10
15.63715919840764
 20
5.475837349686962
 42
0.089716479854888
 10
14.3543981459764
 20
7.465591397849607
 42
0.2077158227956329
 10
12.89317943061591
 20
8.099999999999887
 10
11.04584591740306
 20
8.099999999999909
 10
9.495845917403071
 20
9.575000000000002
 10
7.945845917403074
 20
8.099999999999942
 10
6.098512404190444
 20
8.099999999999994
 42
0.2077158227956329
 10
4.637293688829968
 20
7.465591397849607
 42
0.089716479854888
 10
3.354532636398742
 20
5.475837349686996
 10
1.910819325038628
 20
2.0
 10
5.245845917403186
 20
2.0
 10
5.245845917403186
 20
0.0
 10
0.0
 20
0.0
 10
-3.709373221255757
 20
3.709373221255589
 10
-2.29515965888271
 20
5.12358678362868
 10
0.0630602600157317
 20
2.765366864730239
 10
1.499988947728879
 20
6.244014497547431
 42
0.0897164798548852
 10
1.999908489261938
 20
8.558032116712695
 42
0.2077158227956326
 10
1.415265451457456
 20
10.03986440376442
 10
0.1090033971516959
 20
11.34612645807024
 10
0.0559703885627414
 20
13.48512447115958
 10
-2.083027624526636
 20
13.53815747974852
 10
-3.389289678832652
 20
14.84441953405446
 42
0.2077158227956329
 10
-4.871121965884356
 20
15.42906257185896
 42
0.0897164798548864
 10
-7.185139585049626
 20
14.92914303032589
 10
-10.6637872178668
 20
13.49221434261278
 10
-8.305567298968355
 20
11.13399442371434
 10
-9.719780861341464
 20
9.719780861341234
 10
-13.42915408259699
 20
13.42915408259679
 10
-13.42915408259682
 20
18.67500000000001
 10
-11.42915408259682
 20
18.67500000000001
 10
-11.42915408259682
 20
15.33997340763545
 10
-7.953316732909852
 20
16.78368671899557
 42
0.0897164798548865
 10
-5.963562684747214
 20
18.06644777142679
 42
0.2077158227956331
 10
-5.329154082596858
 20
19.52766648678707
 10
-5.329154082596858
 20
21.37499999999992
 10
-3.854154082596778
 20
22.92499999999993
 10
-5.329154082596858
 20
24.47499999999991
 10
-5.329154082596858
 20
26.32233351321275
 42
0.2077158227956331
 10
-5.963562684747214
 20
27.78355222857323
 42
0.0897164798548864
 10
-7.953316732909852
 20
29.06631328100445
 10
-11.42915408259682
 20
30.51002659236457
 10
-11.42915408259682
 20
27.17500000000001
 10
-13.42915408259682
 20
27.17500000000001
 10
-13.42915408259682
 20
41.17500000000001
 10
-11.42915408259682
 20
41.17500000000001
 10
-11.42915408259682
 20
37.83997340763546
 10
-7.953316732909852
 20
39.28368671899557
 42
0.0897164798548865
 10
-5.963562684747214
 20
40.56644777142678
 42
0.2077158227956331
 10
-5.329154082596858
 20
42.02766648678727
 10
-5.329154082596858
 20
43.87500000000009
 10
-3.854154082596778
 20
45.42500000000011
 10
-5.329154082596858
 20
46.97500000000011
 10
-5.329154082596858
 20
48.82233351321296
 42
0.2077158227956331
 10
-5.963562684747214
 20
50.28355222857342
 42
0.0897164798548864
 10
-7.953316732909852
 20
51.56631328100464
 10
-11.42915408259681
 20
53.01002659236475
 10
-11.42915408259682
 20
49.67500000000021
 10
-13.42915408259682
 20
49.67500000000021
 10
-13.42915408259682
 20
63.67500000000021
 10
-11.42915408259682
 20
63.67500000000021
 10
-11.42915408259682
 20
60.33997340763566
 10
-7.953316732909852
 20
61.78368671899576
 42
0.0897164798548865
 10
-5.963562684747214
 20
63.06644777142699
 42
0.2077158227956331
 10
-5.329154082596858
 20
64.52766648678745
 10
-5.329154082596858
 20
66.37500000000031
 10
-3.854154082596778
 20
67.92500000000032
 10
-5.329154082596858
 20
69.47500000000029
 10
-5.329154082596858
 20
71.32233351321295
 42
0.2077158227956331
 10
-5.963562684747214
 20
72.78355222857341
 42
0.0897164798548864
 10
-7.953316732909852
 20
74.06631328100465
 10
-11.42915408259682
 20
75.51002659236477
 10
-11.42915408259682
 20
72.17500000000019
 10
-13.42915408259682
 20
72.17500000000019
 10
-13.42915408259699
 20
77.42084591740344
 10
-9.719780861341464
 20
81.13021913865898
 10
-8.305567298968355
 20
79.71600557628588
 10
-10.6637872178668
 20
77.35778565738744
 10
-7.185139585049626
 20
75.92085696967433
 42
0.0897164798548865
 10
-4.871121965884356
 20
75.42093742814127
 42
0.2077158227956331
 10
-3.389289678832652
 20
76.00558046594573
 10
-2.083027624526636
 20
77.31184252025173
 10
0.0559703885627414
 20
77.36487552884068
 10
0.1090033971516959
 20
79.50387354193002
 10
1.415265451457456
 20
80.81013559623583
 42
0.2077158227956326
 10
1.999908489261938
 20
82.29196788328751
 42
0.0897164798548838
 10
1.499988947728893
 20
84.60598550245277
 10
0.0630602600157317
 20
88.08463313526997
 10
-2.29515965888271
 20
85.72641321637155
 10
-3.709373221255757
 20
87.14062677874464
 10
0.0
 20
90.8500000000002
 10
5.245845917403186
 20
90.8500000000002
 10
5.245845917403186
 20
88.85000000000021
 10
1.910819325038628
 20
88.85000000000021
 10
3.354532636398742
 20
85.37416265031323
 42
0.0897164798548895
 10
4.637293688829968
 20
83.38440860215058
 42
0.2077158227956329
 10
6.098512404190444
 20
82.75000000000025
 10
7.945845917403074
 20
82.75000000000032
 10
9.495845917403071
 20
81.27500000000024
 10
11.04584591740306
 20
82.75000000000034
 10
12.89317943061591
 20
82.75000000000037
 42
0.2077158227956329
 10
14.3543981459764
 20
83.38440860215062
 42
0.0897164798548894
 10
15.63715919840766
 20
85.3741626503133
 10
17.08087250976774
 20
88.85000000000021
 10
13.74584591740318
 20
88.85000000000021
 10
13.74584591740318
 20
90.8500000000002
 10
18.99169183480632
 20
90.85000000000027
 10
22.70106505606191
 20
87.14062677874473
 10
21.2868514936888
 20
85.72641321637162
 10
18.92863157479036
 20
88.08463313527008
 10
17.49170288707722
 20
84.60598550245292
 42
0.0897164798548838
 10
16.99178334554415
 20
82.29196788328762
 42
0.2077158227956329
 10
17.57642638334863
 20
80.81013559623592
 10
18.88268843765445
 20
79.50387354193011
 10
18.9357214462434
 20
77.36487552884068
 10
21.07471945933276
 20
77.31184252025173
 10
22.3809815136388
 20
76.00558046594575
 42
0.2077158227956331
 10
23.86281380069044
 20
75.42093742814137
 42
0.0897164798548865
 10
26.17683141985572
 20
75.92085696967441
 10
29.65547905267289
 20
77.35778565738754
 10
27.29725913377445
 20
79.71600557628597
 10
28.71147269614755
 20
81.13021913865907
 10
32.4208459174032
 20
77.42084591740344
 10
32.4208459174032
 20
72.17500000000024
 10
30.4208459174032
 20
72.17500000000024
 10
30.4208459174032
 20
75.5100265923648
 10
26.94500856771617
 20
74.06631328100468
 42
0.0897164798548863
 10
24.95525451955359
 20
72.78355222857347
 42
0.2077158227956331
 10
24.32084591740318
 20
71.32233351321298
 10
24.32084591740323
 20
69.47500000000029
 10
22.84584591740316
 20
67.92500000000032
 10
24.32084591740323
 20
66.37500000000031
 10
24.32084591740323
 20
64.52766648678745
 42
0.2077158227956327
 10
24.95525451955359
 20
63.06644777142702
 42
0.0897164798548865
 10
26.94500856771623
 20
61.78368671899576
 10
30.4208459174032
 20
60.33997340763566
 10
30.4208459174032
 20
63.67500000000021
 10
32.4208459174032
 20
63.67500000000021
 10
32.4208459174032
 20
49.67500000000021
 10
30.4208459174032
 20
49.67500000000021
 10
30.42084591740318
 20
53.01002659236475
 10
26.94500856771623
 20
51.56631328100464
 42
0.0897164798548865
 10
24.95525451955359
 20
50.28355222857342
 42
0.2077158227956331
 10
24.32084591740323
 20
48.82233351321296
 10
24.32084591740323
 20
46.97500000000011
 10
22.84584591740316
 20
45.42500000000011
 10
24.32084591740323
 20
43.87500000000009
 10
24.32084591740323
 20
42.02766648678727
 42
0.2077158227956331
 10
24.95525451955359
 20
40.56644777142678
 42
0.0897164798548865
 10
26.94500856771623
 20
39.28368671899557
 10
30.4208459174032
 20
37.83997340763546
 10
30.4208459174032
 20
41.17500000000001
 10
32.4208459174032
 20
41.17500000000001
 10
32.4208459174032
 20
27.17500000000001
 10
30.4208459174032
 20
27.17500000000001
 10
30.4208459174032
 20
30.51002659236457
 10
26.94500856771623
 20
29.06631328100445
 42
0.0897164798548865
 10
24.95525451955359
 20
27.78355222857323
 42
0.2077158227956327
 10
24.32084591740318
 20
26.32233351321273
 10
24.32084591740323
 20
24.47499999999991
 10
22.84584591740316
 20
22.92499999999993
 10
24.32084591740323
 20
21.37499999999992
 10
24.32084591740323
 20
19.52766648678707
 42
0.2077158227956331
 10
24.95525451955359
 20
18.06644777142676
 42
0.0897164798548863
 10
26.94500856771617
 20
16.78368671899554
 10
30.4208459174032
 20
15.33997340763542
 10
30.4208459174032
 20
18.67499999999998
 10
32.4208459174032
 20
18.67499999999998
 10
32.4208459174032
 20
13.42915408259679
 10
28.71147269614755
 20
9.719780861341135
 10
27.29725913377445
 20
11.13399442371424
 10
29.65547905267289
 20
13.49221434261268
 10
26.17683141985572
 20
14.9291430303258
 42
0.0897164798548865
 10
23.86281380069044
 20
15.42906257185885
 42
0.2077158227956329
 10
22.38098151363875
 20
14.84441953405439
 10
21.07471945933278
 20
13.53815747974852
 10
18.9357214462434
 20
13.48512447115958
 10
18.88268843765445
 20
11.34612645807024
 10
17.57642638334869
 20
10.03986440376442
 42
0.2077158227956329
 10
16.99178334554415
 20
8.558032116712594
 42
0.0897164798548852
  0
LWPOLYLINE
  5
166A07030A6696D
330
166A0B99A429BBD
100
AcDbEntity
  8
KONTUR
100
AcDbPolyline
 90
       64
 70
     1
 43
0.0
 10
22.02734493004971
 20
17.28159073420252
 42
0.0619077915556673
 10
19.99584591740313
 20
16.6287134761657
 10
19.99584591740313
 20
15.52499999999989
 10
18.21893114173576
 20
15.52499999999986
 42
0.05423784505966
 10
16.89584591740322
 20
14.2019147756674
 10
16.89584591740328
 20
12.42499999999998
 10
15.79213244123718
 20
12.42499999999957
 42
0.0619077915556551
 10
15.13925518320047
 20
10.39350098735342
 42
-0.5403467542348263
 10
14.36646088682175
 20
10.07339910886877
 42
0.0619077915556652
 10
12.46832022256529
 20
11.04823190024458
 10
11.68787693908149
 20
10.26778861676075
 10
10.4314084516165
 20
11.52425710422571
 42
0.0542378450596601
 10
8.560283383190039
 20
11.52425710422574
 10
7.303814895725053
 20
10.26778861676072
 10
6.523371612241134
 20
11.04823190024461
 42
0.0619077915556715
 10
4.625230947984332
 20
10.07339910886873
 42
-0.5403467542348138
 10
3.852436651605612
 20
10.39350098735337
 42
0.0619077915556545
 10
3.199559393568732
 20
12.42499999999998
 10
2.09584591740298
 20
12.42499999999998
 10
2.095845917402924
 20
14.20191477566733
 42
0.05423784505966
 10
0.7727606930704383
 20
15.52499999999986
 10
-1.004154082596981
 20
15.52499999999983
 10
-1.004154082596981
 20
16.62871347616573
 42
0.0619077915556694
 10
-3.035653095243501
 20
17.28159073420266
 42
-0.5403467542348066
 10
-3.355754973728096
 20
18.05438503058138
 42
0.061907791555667
 10
-2.380922182352263
 20
19.9525256948379
 10
-3.161365465836068
 20
20.73296897832171
 10
-1.90489697837114
 20
21.98943746578669
 42
0.0542378450596602
 10
-1.904896978371084
 20
23.86056253421316
 10
-3.161365465836126
 20
25.11703102167814
 10
-2.380922182352263
 20
25.89747430516207
 42
0.0619077915556706
 10
-3.355754973728096
 20
27.79561496941875
 42
-0.5403467542348253
 10
-3.035653095243387
 20
28.5684092657975
 42
0.0619077915556654
 10
-1.004154082596868
 20
29.22128652383432
 10
-1.004154082596868
 20
30.32500000000013
 10
0.7727606930704951
 20
30.32500000000013
 42
0.05423784505966
 10
2.09584591740298
 20
31.64808522433256
 10
2.09584591740298
 20
33.42499999999998
 10
3.199559393569073
 20
33.42500000000041
 42
0.0619077915556567
 10
3.85243665160584
 20
35.45649901264666
 42
-0.5403467542348138
 10
4.625230947984561
 20
35.7766008911313
 42
0.0619077915556672
 10
6.523371612241077
 20
34.80176809975545
 10
7.303814895724881
 20
35.58221138323928
 10
8.560283383189869
 20
34.32574289577431
 42
0.05423784505966
 10
10.43140845161633
 20
34.32574289577428
 10
11.68787693908132
 20
35.5822113832393
 10
12.46832022256524
 20
34.80176809975541
 42
0.0619077915556696
 10
14.36646088682187
 20
35.77660089113126
 42
-0.5403467542348209
 10
15.13925518320059
 20
35.4564990126466
 42
0.061907791555653
 10
15.7921324412373
 20
33.42500000000045
 10
16.89584591740322
 20
33.42500000000004
 10
16.89584591740322
 20
31.64808522433265
 42
0.05423784505966
 10
18.21893114173571
 20
30.32500000000013
 10
19.99584591740313
 20
30.32500000000013
 10
19.99584591740319
 20
29.22128652383424
 42
0.0619077915556705
 10
22.02734493004988
 20
28.5684092657973
 42
-0.5403467542348098
 10
22.34744680853447
 20
27.79561496941858
 42
0.0619077915556662
 10
21.37261401715864
 20
25.89747430516209
 10
22.15305730064244
 20
25.11703102167829
 10
20.89658881317746
 20
23.8605625342133
 42
0.0542378450596598
 10
20.89658881317746
 20
21.98943746578684
 10
22.15305730064244
 20
20.73296897832185
 10
21.37261401715858
 20
19.95252569483793
 42
0.061907791555671
 10
22.34744680853436
 20
18.05438503058123
 42
-0.5403467542348272
  0
LWPOLYLINE
  5
166A07030A669AF
330
166A0B99A429BBD
100
AcDbEntity
  8
KONTUR
100
AcDbPolyline
 90
       58
 70
     1
 43
0.0
 10
23.8628138006905
 20
30.42093742814115
 42
0.0897164798548865
 10
26.17683141985583
 20
30.92085696967416
 10
30.42084591740318
 20
32.67393656447568
 10
30.42084591740318
 20
35.67606343552434
 10
26.17683141985583
 20
37.42914303032586
 42
-0.2092579939145064
 10
21.37261401715864
 20
42.45252569483795
 10
22.1530573006425
 20
43.23296897832189
 10
20.89658881317746
 20
44.48943746578684
 42
-0.0542378450596602
 10
20.89658881317746
 20
46.36056253421336
 10
22.1530573006425
 20
47.61703102167834
 10
21.37261401715863
 20
48.39747430516225
 42
-0.2092579939145065
 10
26.17683141985583
 20
53.42085696967436
 10
30.42084591740318
 20
55.17393656447588
 10
30.42084591740318
 20
58.17606343552454
 10
26.17683141985583
 20
59.92914303032605
 42
0.0897164798548865
 10
23.8628138006905
 20
60.42906257185919
 42
0.2077158227956331
 10
22.38098151363857
 20
59.84441953405458
 10
21.07471945933276
 20
58.5381574797489
 10
18.9357214462434
 20
58.48512447115997
 10
18.88268843765445
 20
56.34612645807045
 10
15.6365619795843
 20
53.1000000000002
 10
11.04584591740306
 20
53.10000000000032
 10
9.495845917403071
 20
54.5750000000004
 10
7.945845917402905
 20
53.1000000000002
 10
3.355129855221902
 20
53.1000000000002
 10
0.1090033971516959
 20
56.34612645807045
 10
0.0559703885627414
 20
58.48512447115997
 10
-2.083027624526605
 20
58.5381574797489
 10
-3.389289678832426
 20
59.84441953405458
 42
0.2077158227956329
 10
-4.871121965884126
 20
60.42906257185907
 42
0.0897164798548864
 10
-7.185139585049454
 20
59.92914303032605
 10
-11.42915408259681
 20
58.17606343552454
 10
-11.42915408259681
 20
55.17393656447588
 10
-7.185139585049454
 20
53.42085696967436
 42
-0.2092579939145064
 10
-2.380922182352263
 20
48.39747430516225
 10
-3.161365465836126
 20
47.61703102167834
 10
-1.904896978371084
 20
46.36056253421336
 42
-0.0542378450596602
 10
-1.904896978371084
 20
44.48943746578684
 10
-3.161365465836126
 20
43.23296897832189
 10
-2.380922182352263
 20
42.45252569483795
 42
-0.2092579939145063
 10
-7.185139585049454
 20
37.42914303032586
 10
-11.42915408259681
 20
35.67606343552434
 10
-11.42915408259681
 20
32.67393656447568
 10
-7.185139585049454
 20
30.92085696967416
 42
0.0897164798548865
 10
-4.871121965884126
 20
30.42093742814115
 42
0.2077158227956329
 10
-3.389289678832426
 20
31.00558046594563
 10
-2.083027624526677
 20
32.31184252025137
 10
0.0559703885627414
 20
32.36487552884032
 10
0.1090033971516959
 20
34.50387354192965
 10
3.355129855221902
 20
37.75000000000004
 10
7.945845917402954
 20
37.75000000000004
 10
9.495845917403071
 20
36.27499999999987
 10
11.04584591740306
 20
37.74999999999995
 10
15.6365619795843
 20
37.75000000000004
 10
18.88268843765444
 20
34.50387354192982
 10
18.9357214462434
 20
32.36487552884032
 10
21.07471945933276
 20
32.31184252025137
 10
22.3809815136388
 20
31.00558046594549
 42
0.2077158227956331
  0
LWPOLYLINE
  5
166A07030A669EB
330
166A0B99A429BBD
100
AcDbEntity
  8
KONTUR
100
AcDbPolyline
 90
       64
 70
     1
 43
0.0
 10
22.02734493004971
 20
73.5684092657977
 42
-0.0619077915556673
 10
19.99584591740313
 20
74.22128652383452
 10
19.99584591740313
 20
75.32500000000033
 10
18.21893114173576
 20
75.32500000000036
 42
-0.05423784505966
 10
16.89584591740322
 20
76.6480852243328
 10
16.89584591740328
 20
78.42500000000024
 10
15.79213244123718
 20
78.42500000000066
 42
-0.0619077915556551
 10
15.13925518320047
 20
80.45649901264679
 42
0.5403467542348263
 10
14.36646088682175
 20
80.77660089113145
 42
-0.0619077915556652
 10
12.46832022256529
 20
79.80176809975564
 10
11.68787693908149
 20
80.58221138323947
 10
10.4314084516165
 20
79.32574289577451
 42
-0.0542378450596601
 10
8.560283383190039
 20
79.32574289577448
 10
7.303814895725053
 20
80.58221138323949
 10
6.523371612241134
 20
79.80176809975559
 42
-0.0619077915556715
 10
4.625230947984332
 20
80.7766008911315
 42
0.5403467542348138
 10
3.852436651605612
 20
80.45649901264685
 42
-0.0619077915556545
 10
3.199559393568732
 20
78.42500000000024
 10
2.09584591740298
 20
78.42500000000024
 10
2.095845917402924
 20
76.64808522433289
 42
-0.05423784505966
 10
0.7727606930704383
 20
75.32500000000036
 10
-1.004154082596981
 20
75.32500000000037
 10
-1.004154082596981
 20
74.22128652383448
 42
-0.0619077915556694
 10
-3.035653095243501
 20
73.56840926579756
 42
0.5403467542348066
 10
-3.355754973728096
 20
72.79561496941884
 42
-0.061907791555667
 10
-2.380922182352263
 20
70.89747430516232
 10
-3.161365465836068
 20
70.11703102167849
 10
-1.90489697837114
 20
68.86056253421353
 42
-0.0542378450596602
 10
-1.904896978371084
 20
66.98943746578706
 10
-3.161365465836126
 20
65.73296897832206
 10
-2.380922182352263
 20
64.95252569483816
 42
-0.0619077915556706
 10
-3.355754973728096
 20
63.05438503058145
 42
0.5403467542348253
 10
-3.035653095243387
 20
62.28159073420272
 42
-0.0619077915556654
 10
-1.004154082596868
 20
61.6287134761659
 10
-1.004154082596868
 20
60.52500000000009
 10
0.7727606930704951
 20
60.52500000000009
 42
-0.05423784505966
 10
2.09584591740298
 20
59.20191477566766
 10
2.09584591740298
 20
57.42500000000024
 10
3.199559393569073
 20
57.42499999999981
 42
-0.0619077915556567
 10
3.85243665160584
 20
55.39350098735358
 42
0.5403467542348138
 10
4.625230947984561
 20
55.07339910886893
 42
-0.0619077915556672
 10
6.523371612241077
 20
56.04823190024479
 10
7.303814895724881
 20
55.26778861676095
 10
8.560283383189869
 20
56.52425710422591
 42
-0.05423784505966
 10
10.43140845161633
 20
56.52425710422594
 10
11.68787693908132
 20
55.26778861676092
 10
12.46832022256524
 20
56.04823190024482
 42
-0.0619077915556696
 10
14.36646088682187
 20
55.07339910886898
 42
0.5403467542348209
 10
15.13925518320059
 20
55.39350098735363
 42
-0.061907791555653
 10
15.7921324412373
 20
57.42499999999978
 10
16.89584591740322
 20
57.42500000000018
 10
16.89584591740322
 20
59.20191477566756
 42
-0.05423784505966
 10
18.21893114173571
 20
60.52500000000009
 10
19.99584591740313
 20
60.52500000000009
 10
19.99584591740319
 20
61.62871347616597
 42
-0.0619077915556705
 10
22.02734493004988
 20
62.28159073420292
 42
0.5403467542348098
 10
22.34744680853447
 20
63.05438503058162
 42
-0.0619077915556662
 10
21.37261401715864
 20
64.95252569483813
 10
22.15305730064244
 20
65.73296897832193
 10
20.89658881317746
 20
66.98943746578692
 42
-0.0542378450596598
 10
20.89658881317746
 20
68.86056253421338
 10
22.15305730064244
 20
70.11703102167837
 10
21.37261401715858
 20
70.89747430516229
 42
-0.061907791555671
 10
22.34744680853436
 20
72.79561496941898
 42
0.5403467542348272
  0
ENDBLK
  5
166A07030A66A2D
330
166A0B99A429BBD
100
AcDbEntity
  8
0
100
AcDbBlockEnd
  0
BLOCK
  5
166A0B99A42A27F
330
166A0B99A42A27E
100
AcDbEntity
  8
0
100
AcDbBlockBegin
  2
X
 70
     0
 10
0.0
 20
0.0
 30
0.0
  3
X
  1

  0
LINE
  5
166A0B99A42A280
330
166A0B99A42A27E
100
AcDbEntity
  8
UMRISS02
  6
Continuous
100
AcDbLine
 10
0.0
 20
6.0
 30
0.0
 11
-40.0
 21
6.0
 31
0.0
  0
LINE
  5
166A0B99A42A281
330
166A0B99A42A27E
100
AcDbEntity
  8
UMRISS02
  6
Continuous
100
AcDbLine
 10
0.0
 20
12.0
 30
0.0
 11
-40.0
 21
12.0
 31
0.0
  0
LINE
  5
166A0B99A42A282
330
166A0B99A42A27E
100
AcDbEntity
  8
UMRISS02
100
AcDbLine
 10
-20.0
 20
0.0
 30
0.0
 11
-20.0
 21
18.0
 31
0.0
  0
LINE
  5
166A0B99A42A283
330
166A0B99A42A27E
100
AcDbEntity
  8
UMRISS02
  6
Continuous
100
AcDbLine
 10
0.0
 20
18.0
 30
0.0
 11
-40.0
 21
18.0
 31
0.0
  0
LINE
  5
166A0B99A42A284
330
166A0B99A42A27E
100
AcDbEntity
  8
UMRISS02
100
AcDbLine
 10
-40.0
 20
0.0
 30
0.0
 11
-40.0
 21
18.0
 31
0.0
  0
ENDBLK
  5
166A0B99A42A285
330
166A0B99A42A27E
100
AcDbEntity
  8
0
100
AcDbBlockEnd
  0
BLOCK
  5
166A0B99A42BED5
330
166A0B99A42BECB
100
AcDbEntity
  8
0
100
AcDbBlockBegin
  2
*D8
 70
     1
 10
0.0
 20
0.0
 30
0.0
  3
*D8
  1

  0
LINE
  5
166A0B99A42C2AB
330
166A0B99A42BECB
100
AcDbEntity
  8
BEMASSUNG
 62
     0
370
    -2
100
AcDbLine
 10
81.10512243165194
 20
86.34950810938084
 30
0.0
 11
81.10512243165194
 21
71.06490990784654
 31
0.0
  0
LINE
  5
166A0B99A42C2AC
330
166A0B99A42BECB
100
AcDbEntity
  8
BEMASSUNG
 62
     0
370
    -2
100
AcDbLine
 10
145.1051220145576
 20
86.34950810938084
 30
0.0
 11
145.1051220145576
 21
71.06490990784654
 31
0.0
  0
LINE
  5
166A0B99A42C2AD
330
166A0B99A42BECB
100
AcDbEntity
  8
BEMASSUNG
 62
     0
370
    -2
100
AcDbLine
 10
85.10512243165193
 20
72.06490990784654
 30
0.0
 11
141.1051220145576
 21
72.06490990784654
 31
0.0
  0
SOLID
  5
166A0B99A42C2AE
330
166A0B99A42BECB
100
AcDbEntity
  8
BEMASSUNG
 62
     0
100
AcDbTrace
 10
85.10512243165193
 20
72.73157657451321
 30
0.0
 11
85.10512243165193
 21
71.39824324117987
 31
0.0
 12
81.10512243165194
 22
72.06490990784654
 32
0.0
 13
81.10512243165194
 23
72.06490990784654
 33
0.0
  0
SOLID
  5
166A0B99A42C2AF
330
166A0B99A42BECB
100
AcDbEntity
  8
BEMASSUNG
 62
     0
100
AcDbTrace
 10
141.1051220145576
 20
72.73157657451321
 30
0.0
 11
141.1051220145576
 21
71.39824324117987
 31
0.0
 12
145.1051220145576
 22
72.06490990784654
 32
0.0
 13
145.1051220145576
 23
72.06490990784654
 33
0.0
  0
MTEXT
  5
166A0B99A42C2B0
330
166A0B99A42BECB
100
AcDbEntity
  8
BEMASSUNG
 62
     0
100
AcDbMText
 10
113.1051222231048
 20
74.81490990784654
 30
0.0
 40
3.5
 41
0.0
 71
     5
 72
     1
  1
\A1;16
 73
     1
 44
1.0
1001
ACAD
1000
MTEXTBEGIN
1070
    73
1070
     1
1070
    44
1040
1.0
1070
    74
1070
     0
1000
MTEXTEND
  0
POINT
  5
166A0B99A42C2B1
330
166A0B99A42BECB
100
AcDbEntity
  8
DEFPOINTS
 62
     0
100
AcDbPoint
 10
81.10512243165194
 20
88.34950810938083
 30
0.0
  0
POINT
  5
166A0B99A42C2B2
330
166A0B99A42BECB
100
AcDbEntity
  8
DEFPOINTS
 62
     0
100
AcDbPoint
 10
145.1051220145576
 20
88.34950810938083
 30
0.0
  0
POINT
  5
166A0B99A42C2B3
330
166A0B99A42BECB
100
AcDbEntity
  8
DEFPOINTS
 62
     0
100
AcDbPoint
 10
145.1051220145576
 20
72.06490990784654
 30
0.0
  0
ENDBLK
  5
166A0B99A42BED6
330
166A0B99A42BECB
100
AcDbEntity
  8
0
100
AcDbBlockEnd
  0
BLOCK
  5
166A0B99A42BEED
330
166A0B99A42BEE3
100
AcDbEntity
  8
0
100
AcDbBlockBegin
  2
*D9
 70
     1
 10
0.0
 20
0.0
 30
0.0
  3
*D9
  1

  0
LINE
  5
166A0B99A42C2B4
330
166A0B99A42BEE3
100
AcDbEntity
  8
BEMASSUNG
 62
     0
370
    -2
100
AcDbLine
 10
147.1051220145576
 20
168.3495075880131
 30
0.0
 11
163.819460448634
 21
168.3495075880131
 31
0.0
  0
LINE
  5
166A0B99A42C2B5
330
166A0B99A42BEE3
100
AcDbEntity
  8
BEMASSUNG
 62
     0
370
    -2
100
AcDbLine
 10
147.1051220145576
 20
88.34950810938083
 30
0.0
 11
163.819460448634
 21
88.34950810938083
 31
0.0
  0
LINE
  5
166A0B99A42C2B6
330
166A0B99A42BEE3
100
AcDbEntity
  8
BEMASSUNG
 62
     0
370
    -2
100
AcDbLine
 10
162.819460448634
 20
164.3495075880131
 30
0.0
 11
162.819460448634
 21
92.34950810938084
 31
0.0
  0
SOLID
  5
166A0B99A42C2B7
330
166A0B99A42BEE3
100
AcDbEntity
  8
BEMASSUNG
 62
     0
100
AcDbTrace
 10
162.1527937819673
 20
164.3495075880131
 30
0.0
 11
163.4861271153006
 21
164.3495075880131
 31
0.0
 12
162.819460448634
 22
168.3495075880131
 32
0.0
 13
162.819460448634
 23
168.3495075880131
 33
0.0
  0
SOLID
  5
166A0B99A42C2B8
330
166A0B99A42BEE3
100
AcDbEntity
  8
BEMASSUNG
 62
     0
100
AcDbTrace
 10
162.1527937819673
 20
92.34950810938084
 30
0.0
 11
163.4861271153006
 21
92.34950810938084
 31
0.0
 12
162.819460448634
 22
88.34950810938083
 32
0.0
 13
162.819460448634
 23
88.34950810938083
 33
0.0
  0
MTEXT
  5
166A0B99A42C2B9
330
166A0B99A42BEE3
100
AcDbEntity
  8
BEMASSUNG
 62
     0
100
AcDbMText
 10
160.0694604486339
 20
128.349507848697
 30
0.0
 40
3.5
 41
0.0
 71
     5
 72
     1
  1
\A1;20
 11
0.0000000000000001
 21
1.0
 31
0.0
 73
     1
 44
1.0
1001
ACAD
1000
MTEXTBEGIN
1070
    73
1070
     1
1070
    44
1040
1.0
1070
    74
1070
     0
1000
MTEXTEND
  0
POINT
  5
166A0B99A42C2BA
330
166A0B99A42BEE3
100
AcDbEntity
  8
DEFPOINTS
 62
     0
100
AcDbPoint
 10
145.1051220145576
 20
168.3495075880131
 30
0.0
  0
POINT
  5
166A0B99A42C2BB
330
166A0B99A42BEE3
100
AcDbEntity
  8
DEFPOINTS
 62
     0
100
AcDbPoint
 10
145.1051220145576
 20
88.34950810938083
 30
0.0
  0
POINT
  5
166A0B99A42C2BC
330
166A0B99A42BEE3
100
AcDbEntity
  8
DEFPOINTS
 62
     0
100
AcDbPoint
 10
162.819460448634
 20
88.34950810938083
 30
0.0
  0
ENDBLK
  5
166A0B99A42BEEE
330
166A0B99A42BEE3
100
AcDbEntity
  8
0
100
AcDbBlockEnd
  0
BLOCK
  5
166A0B99A42BF05
330
166A0B99A42BEFB
100
AcDbEntity
  8
0
100
AcDbBlockBegin
  2
*D10
 70
     1
 10
0.0
 20
0.0
 30
0.0
  3
*D10
  1

  0
LINE
  5
166A0B99A42C2BD
330
166A0B99A42BEFB
100
AcDbEntity
  8
BEMASSUNG
 62
     0
370
    -2
100
AcDbLine
 10
79.10512243165195
 20
143.3495077509405
 30
0.0
 11
69.59331370811867
 21
143.3495077509405
 31
0.0
  0
LINE
  5
166A0B99A42C2BE
330
166A0B99A42BEFB
100
AcDbEntity
  8
BEMASSUNG
 62
     0
370
    -2
100
AcDbLine
 10
79.10512243165195
 20
109.3495079725218
 30
0.0
 11
69.59331370811867
 21
109.3495079725218
 31
0.0
  0
LINE
  5
166A0B99A42C2BF
330
166A0B99A42BEFB
100
AcDbEntity
  8
BEMASSUNG
 62
     0
370
    -2
100
AcDbLine
 10
70.59331370811867
 20
139.3495077509405
 30
0.0
 11
70.59331370811867
 21
113.3495079725218
 31
0.0
  0
SOLID
  5
166A0B99A42C2C0
330
166A0B99A42BEFB
100
AcDbEntity
  8
BEMASSUNG
 62
     0
100
AcDbTrace
 10
69.926647041452
 20
139.3495077509405
 30
0.0
 11
71.25998037478534
 21
139.3495077509405
 31
0.0
 12
70.59331370811867
 22
143.3495077509405
 32
0.0
 13
70.59331370811867
 23
143.3495077509405
 33
0.0
  0
SOLID
  5
166A0B99A42C2C1
330
166A0B99A42BEFB
100
AcDbEntity
  8
BEMASSUNG
 62
     0
100
AcDbTrace
 10
69.926647041452
 20
113.3495079725218
 30
0.0
 11
71.25998037478534
 21
113.3495079725218
 31
0.0
 12
70.59331370811867
 22
109.3495079725218
 32
0.0
 13
70.59331370811867
 23
109.3495079725218
 33
0.0
  0
MTEXT
  5
166A0B99A42C2C2
330
166A0B99A42BEFB
100
AcDbEntity
  8
BEMASSUNG
 62
     0
100
AcDbMText
 10
66.87109187478532
 20
126.3495078617312
 30
0.0
 40
3.5
 41
0.0
 71
     5
 72
     1
  1
\A1;8.5{\H2.333333;\S+0.3^ -0;}
 11
0.0000000000000001
 21
1.0
 31
0.0
 73
     1
 44
1.0
1001
ACAD
1000
MTEXTBEGIN
1070
    73
1070
     1
1070
    44
1040
1.0
1070
    74
1070
     0
1000
MTEXTEND
  0
POINT
  5
166A0B99A42C2C3
330
166A0B99A42BEFB
100
AcDbEntity
  8
DEFPOINTS
 62
     0
100
AcDbPoint
 10
81.10512243165194
 20
143.3495077509405
 30
0.0
  0
POINT
  5
166A0B99A42C2C4
330
166A0B99A42BEFB
100
AcDbEntity
  8
DEFPOINTS
 62
     0
100
AcDbPoint
 10
81.10512243165194
 20
109.3495079725218
 30
0.0
  0
POINT
  5
166A0B99A42C2C5
330
166A0B99A42BEFB
100
AcDbEntity
  8
DEFPOINTS
 62
     0
100
AcDbPoint
 10
70.59331370811867
 20
109.3495079725218
 30
0.0
  0
ENDBLK
  5
166A0B99A42BF06
330
166A0B99A42BEFB
100
AcDbEntity
  8
0
100
AcDbBlockEnd
  0
BLOCK
  5
166A0B99A42BF1D
330
166A0B99A42BF13
100
AcDbEntity
  8
0
100
AcDbBlockBegin
  2
*D11
 70
     1
 10
0.0
 20
0.0
 30
0.0
  3
*D11
  1

  0
LINE
  5
166A0B99A42C2C6
330
166A0B99A42BF13
100
AcDbEntity
  8
BEMASSUNG
 62
     0
370
    -2
100
AcDbLine
 10
79.10512243165195
 20
164.3495076140814
 30
0.0
 11
46.81368794611265
 21
164.3495076140815
 31
0.0
  0
LINE
  5
166A0B99A42C2C7
330
166A0B99A42BF13
100
AcDbEntity
  8
BEMASSUNG
 62
     0
370
    -2
100
AcDbLine
 10
79.10512243165195
 20
88.34950810938083
 30
0.0
 11
46.81368794611262
 21
88.34950810938083
 31
0.0
  0
LINE
  5
166A0B99A42C2C8
330
166A0B99A42BF13
100
AcDbEntity
  8
BEMASSUNG
 62
     0
370
    -2
100
AcDbLine
 10
47.81368794611265
 20
160.3495076140815
 30
0.0
 11
47.81368794611263
 21
92.34950810938086
 31
0.0
  0
SOLID
  5
166A0B99A42C2C9
330
166A0B99A42BF13
100
AcDbEntity
  8
BEMASSUNG
 62
     0
100
AcDbTrace
 10
47.14702127944597
 20
160.3495076140815
 30
0.0
 11
48.4803546127793
 21
160.3495076140815
 31
0.0
 12
47.81368794611265
 22
164.3495076140815
 32
0.0
 13
47.81368794611265
 23
164.3495076140815
 33
0.0
  0
SOLID
  5
166A0B99A42C2CA
330
166A0B99A42BF13
100
AcDbEntity
  8
BEMASSUNG
 62
     0
100
AcDbTrace
 10
47.14702127944597
 20
92.34950810938086
 30
0.0
 11
48.48035461277929
 21
92.34950810938086
 31
0.0
 12
47.81368794611263
 22
88.34950810938083
 32
0.0
 13
47.81368794611263
 23
88.34950810938083
 33
0.0
  0
MTEXT
  5
166A0B99A42C2CB
330
166A0B99A42BF13
100
AcDbEntity
  8
BEMASSUNG
 62
     0
100
AcDbMText
 10
45.06368794611261
 20
126.3495078617312
 30
0.0
 40
3.5
 41
0.0
 71
     5
 72
     1
  1
\A1;19
 11
0.0000000000000001
 21
1.0
 31
0.0
 73
     1
 44
1.0
1001
ACAD
1000
MTEXTBEGIN
1070
    73
1070
     1
1070
    44
1040
1.0
1070
    74
1070
     0
1000
MTEXTEND
  0
POINT
  5
166A0B99A42C2CC
330
166A0B99A42BF13
100
AcDbEntity
  8
DEFPOINTS
 62
     0
100
AcDbPoint
 10
81.10512243165194
 20
164.3495076140814
 30
0.0
  0
POINT
  5
166A0B99A42C2CD
330
166A0B99A42BF13
100
AcDbEntity
  8
DEFPOINTS
 62
     0
100
AcDbPoint
 10
81.10512243165194
 20
88.34950810938083
 30
0.0
  0
POINT
  5
166A0B99A42C2CE
330
166A0B99A42BF13
100
AcDbEntity
  8
DEFPOINTS
 62
     0
100
AcDbPoint
 10
47.81368794611263
 20
88.34950810938083
 30
0.0
  0
ENDBLK
  5
166A0B99A42BF1E
330
166A0B99A42BF13
100
AcDbEntity
  8
0
100
AcDbBlockEnd
  0
BLOCK
  5
166A0B99A42BF91
330
166A0B99A42BF87
100
AcDbEntity
  8
0
100
AcDbBlockBegin
  2
*D12
 70
     1
 10
0.0
 20
0.0
 30
0.0
  3
*D12
  1

  0
LINE
  5
166A0B99A42C2CF
330
166A0B99A42BF87
100
AcDbEntity
  8
BEMASSUNG
 62
     0
370
    -2
100
AcDbLine
 10
145.1051220145576
 20
170.3495075880131
 30
0.0
 11
145.1051220145576
 21
179.92843415113
 31
0.0
  0
LINE
  5
166A0B99A42C2D0
330
166A0B99A42BF87
100
AcDbEntity
  8
BEMASSUNG
 62
     0
370
    -2
100
AcDbLine
 10
137.1051220666945
 20
170.3495075880131
 30
0.0
 11
137.1051220666945
 21
179.92843415113
 31
0.0
  0
MTEXT
  5
166A0B99A42C2D1
330
166A0B99A42BF87
100
AcDbEntity
  8
BEMASSUNG
 62
     0
100
AcDbMText
 10
141.1051220406261
 20
181.67843415113
 30
0.0
 40
3.5
 41
0.0
 71
     5
 72
     1
  1
\A1;2
 73
     1
 44
1.0
1001
ACAD
1000
MTEXTBEGIN
1070
    73
1070
     1
1070
    44
1040
1.0
1070
    74
1070
     0
1000
MTEXTEND
  0
POINT
  5
166A0B99A42C2D2
330
166A0B99A42BF87
100
AcDbEntity
  8
DEFPOINTS
 62
     0
100
AcDbPoint
 10
145.1051220145576
 20
168.3495075880131
 30
0.0
  0
POINT
  5
166A0B99A42C2D3
330
166A0B99A42BF87
100
AcDbEntity
  8
DEFPOINTS
 62
     0
100
AcDbPoint
 10
137.1051220666945
 20
168.3495075880131
 30
0.0
  0
POINT
  5
166A0B99A42C2D4
330
166A0B99A42BF87
100
AcDbEntity
  8
DEFPOINTS
 62
     0
100
AcDbPoint
 10
137.1051220666945
 20
178.92843415113
 30
0.0
  0
ENDBLK
  5
166A0B99A42BF92
330
166A0B99A42BF87
100
AcDbEntity
  8
0
100
AcDbBlockEnd
  0
BLOCK
  5
166A0B99A42BFA9
330
166A0B99A42BF9F
100
AcDbEntity
  8
0
100
AcDbBlockBegin
  2
*D13
 70
     1
 10
0.0
 20
0.0
 30
0.0
  3
*D13
  1

  0
LINE
  5
166A0B99A42C2D5
330
166A0B99A42BF9F
100
AcDbEntity
  8
BEMASSUNG
 62
     0
370
    -2
100
AcDbLine
 10
137.1051220666945
 20
170.3495075880131
 30
0.0
 11
137.1051220666945
 21
179.92843415113
 31
0.0
  0
LINE
  5
166A0B99A42C2D6
330
166A0B99A42BF9F
100
AcDbEntity
  8
BEMASSUNG
 62
     0
370
    -2
100
AcDbLine
 10
121.105122170968
 20
170.3495075880131
 30
0.0
 11
121.105122170968
 21
179.92843415113
 31
0.0
  0
LINE
  5
166A0B99A42C2D7
330
166A0B99A42BF9F
100
AcDbEntity
  8
BEMASSUNG
 62
     0
370
    -2
100
AcDbLine
 10
133.1051220666945
 20
178.92843415113
 30
0.0
 11
125.105122170968
 21
178.92843415113
 31
0.0
  0
SOLID
  5
166A0B99A42C2D8
330
166A0B99A42BF9F
100
AcDbEntity
  8
BEMASSUNG
 62
     0
100
AcDbTrace
 10
133.1051220666945
 20
179.5951008177966
 30
0.0
 11
133.1051220666945
 21
178.2617674844633
 31
0.0
 12
137.1051220666945
 22
178.92843415113
 32
0.0
 13
137.1051220666945
 23
178.92843415113
 33
0.0
  0
SOLID
  5
166A0B99A42C2D9
330
166A0B99A42BF9F
100
AcDbEntity
  8
BEMASSUNG
 62
     0
100
AcDbTrace
 10
125.105122170968
 20
179.5951008177966
 30
0.0
 11
125.105122170968
 21
178.2617674844633
 31
0.0
 12
121.105122170968
 22
178.92843415113
 32
0.0
 13
121.105122170968
 23
178.92843415113
 33
0.0
  0
MTEXT
  5
166A0B99A42C2DA
330
166A0B99A42BF9F
100
AcDbEntity
  8
BEMASSUNG
 62
     0
100
AcDbMText
 10
129.1051221188312
 20
181.67843415113
 30
0.0
 40
3.5
 41
0.0
 71
     5
 72
     1
  1
\A1;4
 73
     1
 44
1.0
1001
ACAD
1000
MTEXTBEGIN
1070
    73
1070
     1
1070
    44
1040
1.0
1070
    74
1070
     0
1000
MTEXTEND
  0
POINT
  5
166A0B99A42C2DB
330
166A0B99A42BF9F
100
AcDbEntity
  8
DEFPOINTS
 62
     0
100
AcDbPoint
 10
137.1051220666945
 20
168.3495075880131
 30
0.0
  0
POINT
  5
166A0B99A42C2DC
330
166A0B99A42BF9F
100
AcDbEntity
  8
DEFPOINTS
 62
     0
100
AcDbPoint
 10
121.105122170968
 20
168.3495075880131
 30
0.0
  0
POINT
  5
166A0B99A42C2DD
330
166A0B99A42BF9F
100
AcDbEntity
  8
DEFPOINTS
 62
     0
100
AcDbPoint
 10
121.105122170968
 20
178.92843415113
 30
0.0
  0
ENDBLK
  5
166A0B99A42BFAA
330
166A0B99A42BF9F
100
AcDbEntity
  8
0
100
AcDbBlockEnd
  0
BLOCK
  5
166A0B99A42BFC1
330
166A0B99A42BFB7
100
AcDbEntity
  8
0
100
AcDbBlockBegin
  2
*D14
 70
     1
 10
0.0
 20
0.0
 30
0.0
  3
*D14
  1

  0
LINE
  5
166A0B99A42C2DE
330
166A0B99A42BFB7
100
AcDbEntity
  8
BEMASSUNG
 62
     0
370
    -2
100
AcDbLine
 10
121.105122170968
 20
170.3495075880131
 30
0.0
 11
121.105122170968
 21
179.92843415113
 31
0.0
  0
LINE
  5
166A0B99A42C2DF
330
166A0B99A42BFB7
100
AcDbEntity
  8
BEMASSUNG
 62
     0
370
    -2
100
AcDbLine
 10
113.1051222231048
 20
170.3495075880131
 30
0.0
 11
113.1051222231048
 21
179.92843415113
 31
0.0
  0
MTEXT
  5
166A0B99A42C2E0
330
166A0B99A42BFB7
100
AcDbEntity
  8
BEMASSUNG
 62
     0
100
AcDbMText
 10
117.1051221970364
 20
181.67843415113
 30
0.0
 40
3.5
 41
0.0
 71
     5
 72
     1
  1
\A1;2
 73
     1
 44
1.0
1001
ACAD
1000
MTEXTBEGIN
1070
    73
1070
     1
1070
    44
1040
1.0
1070
    74
1070
     0
1000
MTEXTEND
  0
POINT
  5
166A0B99A42C2E1
330
166A0B99A42BFB7
100
AcDbEntity
  8
DEFPOINTS
 62
     0
100
AcDbPoint
 10
121.105122170968
 20
168.3495075880131
 30
0.0
  0
POINT
  5
166A0B99A42C2E2
330
166A0B99A42BFB7
100
AcDbEntity
  8
DEFPOINTS
 62
     0
100
AcDbPoint
 10
113.1051222231048
 20
168.3495075880131
 30
0.0
  0
POINT
  5
166A0B99A42C2E3
330
166A0B99A42BFB7
100
AcDbEntity
  8
DEFPOINTS
 62
     0
100
AcDbPoint
 10
113.1051222231048
 20
178.92843415113
 30
0.0
  0
ENDBLK
  5
166A0B99A42BFC2
330
166A0B99A42BFB7
100
AcDbEntity
  8
0
100
AcDbBlockEnd
  0
BLOCK
  5
166A0B99A42BFD9
330
166A0B99A42BFCF
100
AcDbEntity
  8
0
100
AcDbBlockBegin
  2
*D15
 70
     1
 10
0.0
 20
0.0
 30
0.0
  3
*D15
  1

  0
LINE
  5
166A0B99A42C2E4
330
166A0B99A42BFCF
100
AcDbEntity
  8
BEMASSUNG
 62
     0
370
    -2
100
AcDbLine
 10
113.1051222231048
 20
170.3495075880131
 30
0.0
 11
113.1051222231048
 21
179.92843415113
 31
0.0
  0
LINE
  5
166A0B99A42C2E5
330
166A0B99A42BFCF
100
AcDbEntity
  8
BEMASSUNG
 62
     0
370
    -2
100
AcDbLine
 10
81.10512243165194
 20
166.3495076140814
 30
0.0
 11
81.10512243165194
 21
179.92843415113
 31
0.0
  0
LINE
  5
166A0B99A42C2E6
330
166A0B99A42BFCF
100
AcDbEntity
  8
BEMASSUNG
 62
     0
370
    -2
100
AcDbLine
 10
109.1051222231048
 20
178.92843415113
 30
0.0
 11
85.10512243165193
 21
178.92843415113
 31
0.0
  0
SOLID
  5
166A0B99A42C2E7
330
166A0B99A42BFCF
100
AcDbEntity
  8
BEMASSUNG
 62
     0
100
AcDbTrace
 10
109.1051222231048
 20
179.5951008177966
 30
0.0
 11
109.1051222231048
 21
178.2617674844633
 31
0.0
 12
113.1051222231048
 22
178.92843415113
 32
0.0
 13
113.1051222231048
 23
178.92843415113
 33
0.0
  0
SOLID
  5
166A0B99A42C2E8
330
166A0B99A42BFCF
100
AcDbEntity
  8
BEMASSUNG
 62
     0
100
AcDbTrace
 10
85.10512243165193
 20
179.5951008177966
 30
0.0
 11
85.10512243165193
 21
178.2617674844633
 31
0.0
 12
81.10512243165194
 22
178.92843415113
 32
0.0
 13
81.10512243165194
 23
178.92843415113
 33
0.0
  0
MTEXT
  5
166A0B99A42C2E9
330
166A0B99A42BFCF
100
AcDbEntity
  8
BEMASSUNG
 62
     0
100
AcDbMText
 10
97.10512232737841
 20
181.67843415113
 30
0.0
 40
3.5
 41
0.0
 71
     5
 72
     1
  1
\A1;8
 73
     1
 44
1.0
1001
ACAD
1000
MTEXTBEGIN
1070
    73
1070
     1
1070
    44
1040
1.0
1070
    74
1070
     0
1000
MTEXTEND
  0
POINT
  5
166A0B99A42C2EA
330
166A0B99A42BFCF
100
AcDbEntity
  8
DEFPOINTS
 62
     0
100
AcDbPoint
 10
113.1051222231048
 20
168.3495075880131
 30
0.0
  0
POINT
  5
166A0B99A42C2EB
330
166A0B99A42BFCF
100
AcDbEntity
  8
DEFPOINTS
 62
     0
100
AcDbPoint
 10
81.10512243165194
 20
164.3495076140814
 30
0.0
  0
POINT
  5
166A0B99A42C2EC
330
166A0B99A42BFCF
100
AcDbEntity
  8
DEFPOINTS
 62
     0
100
AcDbPoint
 10
81.10512243165194
 20
178.92843415113
 30
0.0
  0
ENDBLK
  5
166A0B99A42BFDA
330
166A0B99A42BFCF
100
AcDbEntity
  8
0
100
AcDbBlockEnd
  0
BLOCK
  5
166A0B99A42C009
330
166A0B99A42C005
100
AcDbEntity
  8
0
100
AcDbBlockBegin
  2
A$C5E9553D4
 70
     0
 10
0.0
 20
0.0
 30
0.0
  3
A$C5E9553D4
  1

  0
TEXT
  5
166A0B99A42C006
330
166A0B99A42C005
100
AcDbEntity
  8
BEMASSUNG
100
AcDbText
 10
-0.0000001777652869
 20
0.0000000101135811
 30
0.0
 40
1.5
  1
unbemasste Ecken und Kanten = R 0.2 mm
  7
NORM
100
AcDbText
  0
ENDBLK
  5
166A0B99A42C00A
330
166A0B99A42C005
100
AcDbEntity
  8
0
100
AcDbBlockEnd
  0
BLOCK
  5
166A0B99A42C08A
330
166A0B99A42C080
100
AcDbEntity
  8
0
100
AcDbBlockBegin
  2
*D17
 70
     1
 10
0.0
 20
0.0
 30
0.0
  3
*D17
  1

  0
LINE
  5
166A0B99A42C2ED
330
166A0B99A42C080
100
AcDbEntity
  8
BEMASSUNG
 62
     0
370
    -2
100
AcDbLine
 10
81.10512243165429
 20
111.34950797252
 30
0.0
 11
81.10512243165429
 21
117.3587614060583
 31
0.0
  0
LINE
  5
166A0B99A42C2EE
330
166A0B99A42C080
100
AcDbEntity
  8
BEMASSUNG
 62
     0
370
    -2
100
AcDbLine
 10
89.10512237951754
 20
111.34950797252
 30
0.0
 11
89.10512237951754
 21
117.3587614060583
 31
0.0
  0
MTEXT
  5
166A0B99A42C2EF
330
166A0B99A42C080
100
AcDbEntity
  8
BEMASSUNG
 62
     0
100
AcDbMText
 10
85.10512240558592
 20
119.1087614060583
 30
0.0
 40
3.5
 41
0.0
 71
     5
 72
     1
  1
\A1;2
 73
     1
 44
1.0
1001
ACAD
1000
MTEXTBEGIN
1070
    73
1070
     1
1070
    44
1040
1.0
1070
    74
1070
     0
1000
MTEXTEND
  0
POINT
  5
166A0B99A42C2F0
330
166A0B99A42C080
100
AcDbEntity
  8
DEFPOINTS
 62
     0
100
AcDbPoint
 10
81.10512243165429
 20
109.34950797252
 30
0.0
  0
POINT
  5
166A0B99A42C2F1
330
166A0B99A42C080
100
AcDbEntity
  8
DEFPOINTS
 62
     0
100
AcDbPoint
 10
89.10512237951754
 20
109.34950797252
 30
0.0
  0
POINT
  5
166A0B99A42C2F2
330
166A0B99A42C080
100
AcDbEntity
  8
DEFPOINTS
 62
     0
100
AcDbPoint
 10
89.10512237951754
 20
116.3587614060583
 30
0.0
  0
ENDBLK
  5
166A0B99A42C08B
330
166A0B99A42C080
100
AcDbEntity
  8
0
100
AcDbBlockEnd
  0
BLOCK
  5
166A0B99A42C0BA
330
166A0B99A42C0B0
100
AcDbEntity
  8
0
100
AcDbBlockBegin
  2
*D18
 70
     1
 10
0.0
 20
0.0
 30
0.0
  3
*D18
  1

  0
LINE
  5
166A0B99A42C2F3
330
166A0B99A42C0B0
100
AcDbEntity
  8
BEMASSUNG
 62
     0
370
    -2
100
AcDbLine
 10
89.10512237951754
 20
111.34950797252
 30
0.0
 11
89.10512237951754
 21
117.3587614060583
 31
0.0
  0
LINE
  5
166A0B99A42C2F4
330
166A0B99A42C0B0
100
AcDbEntity
  8
BEMASSUNG
 62
     0
370
    -2
100
AcDbLine
 10
105.105122275244
 20
111.34950797252
 30
0.0
 11
105.105122275244
 21
117.3587614060583
 31
0.0
  0
LINE
  5
166A0B99A42C2F5
330
166A0B99A42C0B0
100
AcDbEntity
  8
BEMASSUNG
 62
     0
370
    -2
100
AcDbLine
 10
93.10512237951753
 20
116.3587614060583
 30
0.0
 11
101.105122275244
 21
116.3587614060583
 31
0.0
  0
SOLID
  5
166A0B99A42C2F6
330
166A0B99A42C0B0
100
AcDbEntity
  8
BEMASSUNG
 62
     0
100
AcDbTrace
 10
93.10512237951753
 20
117.025428072725
 30
0.0
 11
93.10512237951753
 21
115.6920947393916
 31
0.0
 12
89.10512237951754
 22
116.3587614060583
 32
0.0
 13
89.10512237951754
 23
116.3587614060583
 33
0.0
  0
SOLID
  5
166A0B99A42C2F7
330
166A0B99A42C0B0
100
AcDbEntity
  8
BEMASSUNG
 62
     0
100
AcDbTrace
 10
101.105122275244
 20
117.025428072725
 30
0.0
 11
101.105122275244
 21
115.6920947393916
 31
0.0
 12
105.105122275244
 22
116.3587614060583
 32
0.0
 13
105.105122275244
 23
116.3587614060583
 33
0.0
  0
MTEXT
  5
166A0B99A42C2F8
330
166A0B99A42C0B0
100
AcDbEntity
  8
BEMASSUNG
 62
     0
100
AcDbMText
 10
97.10512232738075
 20
119.1087614060583
 30
0.0
 40
3.5
 41
0.0
 71
     5
 72
     1
  1
\A1;4
 73
     1
 44
1.0
1001
ACAD
1000
MTEXTBEGIN
1070
    73
1070
     1
1070
    44
1040
1.0
1070
    74
1070
     0
1000
MTEXTEND
  0
POINT
  5
166A0B99A42C2F9
330
166A0B99A42C0B0
100
AcDbEntity
  8
DEFPOINTS
 62
     0
100
AcDbPoint
 10
89.10512237951754
 20
109.34950797252
 30
0.0
  0
POINT
  5
166A0B99A42C2FA
330
166A0B99A42C0B0
100
AcDbEntity
  8
DEFPOINTS
 62
     0
100
AcDbPoint
 10
105.105122275244
 20
109.34950797252
 30
0.0
  0
POINT
  5
166A0B99A42C2FB
330
166A0B99A42C0B0
100
AcDbEntity
  8
DEFPOINTS
 62
     0
100
AcDbPoint
 10
105.105122275244
 20
116.3587614060583
 30
0.0
  0
ENDBLK
  5
166A0B99A42C0BB
330
166A0B99A42C0B0
100
AcDbEntity
  8
0
100
AcDbBlockEnd
  0
BLOCK
  5
166A0B99A42C0D2
330
166A0B99A42C0C8
100
AcDbEntity
  8
0
100
AcDbBlockBegin
  2
*D19
 70
     1
 10
0.0
 20
0.0
 30
0.0
  3
*D19
  1

  0
LINE
  5
166A0B99A42C2FC
330
166A0B99A42C0C8
100
AcDbEntity
  8
BEMASSUNG
 62
     0
370
    -2
100
AcDbLine
 10
105.105122275244
 20
111.34950797252
 30
0.0
 11
105.105122275244
 21
117.3587614060583
 31
0.0
  0
LINE
  5
166A0B99A42C2FD
330
166A0B99A42C0C8
100
AcDbEntity
  8
BEMASSUNG
 62
     0
370
    -2
100
AcDbLine
 10
113.1051222231072
 20
111.34950797252
 30
0.0
 11
113.1051222231072
 21
117.3587614060583
 31
0.0
  0
MTEXT
  5
166A0B99A42C2FE
330
166A0B99A42C0C8
100
AcDbEntity
  8
BEMASSUNG
 62
     0
100
AcDbMText
 10
109.1051222491756
 20
119.1087614060583
 30
0.0
 40
3.5
 41
0.0
 71
     5
 72
     1
  1
\A1;2
 73
     1
 44
1.0
1001
ACAD
1000
MTEXTBEGIN
1070
    73
1070
     1
1070
    44
1040
1.0
1070
    74
1070
     0
1000
MTEXTEND
  0
POINT
  5
166A0B99A42C2FF
330
166A0B99A42C0C8
100
AcDbEntity
  8
DEFPOINTS
 62
     0
100
AcDbPoint
 10
105.105122275244
 20
109.34950797252
 30
0.0
  0
POINT
  5
166A0B99A42C300
330
166A0B99A42C0C8
100
AcDbEntity
  8
DEFPOINTS
 62
     0
100
AcDbPoint
 10
113.1051222231072
 20
109.34950797252
 30
0.0
  0
POINT
  5
166A0B99A42C301
330
166A0B99A42C0C8
100
AcDbEntity
  8
DEFPOINTS
 62
     0
100
AcDbPoint
 10
113.1051222231072
 20
116.3587614060583
 30
0.0
  0
ENDBLK
  5
166A0B99A42C0D3
330
166A0B99A42C0C8
100
AcDbEntity
  8
0
100
AcDbBlockEnd
  0
BLOCK
  5
166A0B99A42C0F3
330
166A0B99A42C0E9
100
AcDbEntity
  8
0
100
AcDbBlockBegin
  2
*D20
 70
     1
 10
0.0
 20
0.0
 30
0.0
  3
*D20
  1

  0
LINE
  5
166A0B99A42C302
330
166A0B99A42C0E9
100
AcDbEntity
  8
BEMASSUNG
 62
     0
370
    -2
100
AcDbLine
 10
87.10512237951752
 20
156.3495076662164
 30
0.0
 11
59.13993158993468
 21
156.3495076662164
 31
0.0
  0
LINE
  5
166A0B99A42C303
330
166A0B99A42C0E9
100
AcDbEntity
  8
BEMASSUNG
 62
     0
370
    -2
100
AcDbLine
 10
87.10512237951752
 20
96.34950805724226
 30
0.0
 11
59.13993158993466
 21
96.34950805724226
 31
0.0
  0
LINE
  5
166A0B99A42C304
330
166A0B99A42C0E9
100
AcDbEntity
  8
BEMASSUNG
 62
     0
370
    -2
100
AcDbLine
 10
60.13993158993468
 20
152.3495076662164
 30
0.0
 11
60.13993158993468
 21
100.3495080572422
 31
0.0
  0
SOLID
  5
166A0B99A42C305
330
166A0B99A42C0E9
100
AcDbEntity
  8
BEMASSUNG
 62
     0
100
AcDbTrace
 10
59.47326492326801
 20
152.3495076662164
 30
0.0
 11
60.80659825660134
 21
152.3495076662164
 31
0.0
 12
60.13993158993468
 22
156.3495076662164
 32
0.0
 13
60.13993158993468
 23
156.3495076662164
 33
0.0
  0
SOLID
  5
166A0B99A42C306
330
166A0B99A42C0E9
100
AcDbEntity
  8
BEMASSUNG
 62
     0
100
AcDbTrace
 10
59.473264923268
 20
100.3495080572422
 30
0.0
 11
60.80659825660134
 21
100.3495080572422
 31
0.0
 12
60.13993158993468
 22
96.34950805724226
 32
0.0
 13
60.13993158993468
 23
96.34950805724226
 33
0.0
  0
MTEXT
  5
166A0B99A42C307
330
166A0B99A42C0E9
100
AcDbEntity
  8
BEMASSUNG
 62
     0
100
AcDbMText
 10
57.38993158993466
 20
126.3495078617293
 30
0.0
 40
3.5
 41
0.0
 71
     5
 72
     1
  1
\A1;15
 11
0.0000000000000001
 21
1.0
 31
0.0
 73
     1
 44
1.0
1001
ACAD
1000
MTEXTBEGIN
1070
    73
1070
     1
1070
    44
1040
1.0
1070
    74
1070
     0
1000
MTEXTEND
  0
POINT
  5
166A0B99A42C308
330
166A0B99A42C0E9
100
AcDbEntity
  8
DEFPOINTS
 62
     0
100
AcDbPoint
 10
89.10512237951754
 20
156.3495076662164
 30
0.0
  0
POINT
  5
166A0B99A42C309
330
166A0B99A42C0E9
100
AcDbEntity
  8
DEFPOINTS
 62
     0
100
AcDbPoint
 10
89.10512237951754
 20
96.34950805724226
 30
0.0
  0
POINT
  5
166A0B99A42C30A
330
166A0B99A42C0E9
100
AcDbEntity
  8
DEFPOINTS
 62
     0
100
AcDbPoint
 10
60.13993158993468
 20
96.34950805724226
 30
0.0
  0
ENDBLK
  5
166A0B99A42C0F4
330
166A0B99A42C0E9
100
AcDbEntity
  8
0
100
AcDbBlockEnd
  0
BLOCK
  5
166A0B99A42C113
330
166A0B99A42C109
100
AcDbEntity
  8
0
100
AcDbBlockBegin
  2
*D21
 70
     1
 10
0.0
 20
0.0
 30
0.0
  3
*D21
  1

  0
LINE
  5
166A0B99A42C5B4
330
166A0B99A42C109
100
AcDbEntity
  8
BEMASSUNG
 62
     0
370
    -2
100
AcDbLine
 10
123.1051221709704
 20
168.3495075880113
 30
0.0
 11
129.9713386895006
 21
168.3495075880113
 31
0.0
  0
LINE
  5
166A0B99A42C5B5
330
166A0B99A42C109
100
AcDbEntity
  8
BEMASSUNG
 62
     0
370
    -2
100
AcDbLine
 10
123.1051223013105
 20
112.34950795297
 30
0.0
 11
129.9713386895006
 21
112.34950795297
 31
0.0
  0
LINE
  5
166A0B99A42C5B6
330
166A0B99A42C109
100
AcDbEntity
  8
BEMASSUNG
 62
     0
370
    -2
100
AcDbLine
 10
128.9713386895006
 20
164.3495075880113
 30
0.0
 11
128.9713386895006
 21
116.34950795297
 31
0.0
  0
SOLID
  5
166A0B99A42C5B7
330
166A0B99A42C109
100
AcDbEntity
  8
BEMASSUNG
 62
     0
100
AcDbTrace
 10
128.3046720228339
 20
164.3495075880113
 30
0.0
 11
129.6380053561672
 21
164.3495075880113
 31
0.0
 12
128.9713386895006
 22
168.3495075880113
 32
0.0
 13
128.9713386895006
 23
168.3495075880113
 33
0.0
  0
SOLID
  5
166A0B99A42C5B8
330
166A0B99A42C109
100
AcDbEntity
  8
BEMASSUNG
 62
     0
100
AcDbTrace
 10
128.3046720228339
 20
116.34950795297
 30
0.0
 11
129.6380053561672
 21
116.34950795297
 31
0.0
 12
128.9713386895006
 22
112.34950795297
 32
0.0
 13
128.9713386895006
 23
112.34950795297
 33
0.0
  0
MTEXT
  5
166A0B99A42C5B9
330
166A0B99A42C109
100
AcDbEntity
  8
BEMASSUNG
 62
     0
100
AcDbMText
 10
126.2213386895006
 20
140.3495077704907
 30
0.0
 40
3.5
 41
0.0
 71
     5
 72
     1
  1
\A1;14
 11
0.0000000000000001
 21
1.0
 31
0.0
 73
     1
 44
1.0
1001
ACAD
1000
MTEXTBEGIN
1070
    73
1070
     1
1070
    44
1040
1.0
1070
    74
1070
     0
1000
MTEXTEND
  0
POINT
  5
166A0B99A42C5BA
330
166A0B99A42C109
100
AcDbEntity
  8
DEFPOINTS
 62
     0
100
AcDbPoint
 10
121.1051221709704
 20
168.3495075880113
 30
0.0
  0
POINT
  5
166A0B99A42C5BB
330
166A0B99A42C109
100
AcDbEntity
  8
DEFPOINTS
 62
     0
100
AcDbPoint
 10
121.1051223013105
 20
112.34950795297
 30
0.0
  0
POINT
  5
166A0B99A42C5BC
330
166A0B99A42C109
100
AcDbEntity
  8
DEFPOINTS
 62
     0
100
AcDbPoint
 10
128.9713386895006
 20
112.34950795297
 30
0.0
  0
ENDBLK
  5
166A0B99A42C114
330
166A0B99A42C109
100
AcDbEntity
  8
0
100
AcDbBlockEnd
  0
ENDSEC
  0
SECTION
  2
ENTITIES
  0
INSERT
  5
FD790
330
166A0B99A429BB3
100
AcDbEntity
  8
0
100
AcDbBlockReference
  2
BURKHARD
 10
7625.0
 20
5750.0
 30
0.0
  0
INSERT
  5
166A0B99A422409
330
166A0B99A429BB3
100
AcDbEntity
  8
ASHADE
 62
     1
100
AcDbBlockReference
  2
AVE_RENDER
 10
5424.124824020304
 20
8030.210425813368
 30
0.0
1001
AVE_RENDER
1002
{
1070
     2
1000
Pref
1070
    30
1070
    20
1070
     1
1070
     0
1000

1070
    10
1070
     0
1070
    30
1040
1.0
1070
     1
1040
0.6
1040
0.5
1040
0.9
1040
10.0
1010
-1.0
1020
-1.0
1030
-1.0
1040
0.3
1070
    49
1002
}
  0
INSERT
  5
166A0B99A42240A
330
166A0B99A429BB3
100
AcDbEntity
  8
ASHADE
 62
     3
100
AcDbBlockReference
  2
AVE_RENDER
 10
5424.124824020304
 20
8030.210425813368
 30
0.0
1001
AVE_RENDER
1002
{
1070
     0
1000
Full Opt
1070
     0
1070
     1
1070
     1
1070
     1
1070
     0
1070
     0
1070
     0
1070
     1
1070
     1
1040
0.0001
1040
0.0001
1002
}
  0
INSERT
  5
166A0B99A42240B
330
166A0B99A429BB3
100
AcDbEntity
  8
ASHADE
 62
     4
100
AcDbBlockReference
  2
AVE_RENDER
 10
5424.124824020304
 20
8030.210425813368
 30
0.0
1001
AVE_RENDER
1002
{
1070
     0
1000
Quick Opt
1070
     0
1070
     1
1070
     1
1070
     1
1070
     0
1070
     0
1070
     1
1002
}
  0
INSERT
  5
166A0B99A4244F3
330
166A0B99A429BB3
100
AcDbEntity
  8
ACA_VARSAVE
100
AcDbBlockReference
  2
ACA_SAVE_DONT_PURGE
 10
4783.81235667847
 20
7574.580785332179
 30
0.0
  0
INSERT
  5
166A0B99A424974
330
166A0B99A429BB3
100
AcDbEntity
  8
ACA_VARSAVE
100
AcDbBlockReference
  2
ACA_SAVE_DONT_PURGE
 10
4864.874916898089
 20
8404.051426579419
 30
0.0
  0
INSERT
  5
166A0B99A424975
330
166A0B99A429BB3
100
AcDbEntity
  8
ACA_VARSAVE
100
AcDbBlockReference
  2
ACA_SAVE_DONT_PURGE
 10
4943.747716869832
 20
8376.608290826835
 30
0.0
  0
INSERT
  5
166A0B99A424976
330
166A0B99A429BB3
100
AcDbEntity
  8
ACA_VARSAVE
100
AcDbBlockReference
  2
ACA_SAVE_DONT_PURGE
 10
5060.807181810813
 20
8383.19681775955
 30
0.0
  0
INSERT
  5
166A0B99A4249B9
330
166A0B99A429BB3
100
AcDbEntity
  8
ACA_VARSAVE
100
AcDbBlockReference
  2
ACA_SAVE_DONT_PURGE
 10
5223.762399703195
 20
8581.683568825789
 30
0.0
  0
INSERT
  5
166A0B99A4249DC
330
166A0B99A429BB3
100
AcDbEntity
  8
ACA_VARSAVE
100
AcDbBlockReference
  2
ACA_SAVE_DONT_PURGE
 10
5377.447307061895
 20
8383.350861885523
 30
0.0
  0
INSERT
  5
166A0B99A4249DD
330
166A0B99A429BB3
100
AcDbEntity
  8
ACA_VARSAVE
100
AcDbBlockReference
  2
ACA_SAVE_DONT_PURGE
 10
5419.765112347453
 20
8423.118298212569
 30
0.0
  0
INSERT
  5
166A0B99A424A71
330
166A0B99A429BB3
100
AcDbEntity
  8
ACA_VARSAVE
100
AcDbBlockReference
  2
ACA_SAVE_DONT_PURGE
 10
5498.332846179639
 20
8583.172667993652
 30
0.0
  0
INSERT
  5
166A0B99A424F50
330
166A0B99A429BB3
100
AcDbEntity
  8
ACA_VARSAVE
100
AcDbBlockReference
  2
ACA_SAVE_DONT_PURGE
 10
6038.10654202642
 20
8424.255236543592
 30
0.0
  0
LINE
  5
166A0B99A42C642
330
166A0B99A429BB3
100
AcDbEntity
  8
0
100
AcDbLine
 10
-4.999999999999999
 20
5.25
 30
0.0
 11
-3.999999999999999
 21
5.25
 31
0.0
  0
LINE
  5
166A0B99A42C644
330
166A0B99A429BB3
100
AcDbEntity
  8
0
100
AcDbLine
 10
-4.999999999999999
 20
0.0000000000000006
 30
0.0
 11
-4.999999999999999
 21
5.25
 31
0.0
  0
LINE
  5
166A0B99A42C646
330
166A0B99A429BB3
100
AcDbEntity
  8
0
100
AcDbLine
 10
-4.999999999999999
 20
0.0000000000000006
 30
0.0
 11
11.0
 21
0.0000000000000006
 31
0.0
  0
LINE
  5
166A0B99A42C647
330
166A0B99A429BB3
100
AcDbEntity
  8
0
100
AcDbLine
 10
-4.999999999999999
 20
13.75
 30
0.0
 11
-3.999999999999999
 21
13.75
 31
0.0
  0
LINE
  5
166A0B99A42C648
330
166A0B99A429BB3
100
AcDbEntity
  8
0
100
AcDbLine
 10
11.0
 20
0.0000000000000006
 30
0.0
 11
11.0
 21
20.0
 31
0.0
  0
LINE
  5
166A0B99A42C649
330
166A0B99A429BB3
100
AcDbEntity
  8
0
100
AcDbLine
 10
-4.999999999999999
 20
19.0
 30
0.0
 11
-4.999999999999999
 21
13.75
 31
0.0
  0
LINE
  5
166A0B99A42C64A
330
166A0B99A429BB3
100
AcDbEntity
  8
0
100
AcDbLine
 10
11.0
 20
20.0
 30
0.0
 11
9.0
 21
20.0
 31
0.0
  0
LINE
  5
166A0B99A42C64B
330
166A0B99A429BB3
100
AcDbEntity
  8
0
100
AcDbLine
 10
3.0
 20
19.0
 30
0.0
 11
-4.999999999999999
 21
19.0
 31
0.0
  0
LINE
  5
166A0B99A42C64C
330
166A0B99A429BB3
100
AcDbEntity
  8
0
100
AcDbLine
 10
9.0
 20
20.0
 30
0.0
 11
9.0
 21
6.0
 31
0.0
  0
LINE
  5
166A0B99A42C64D
330
166A0B99A429BB3
100
AcDbEntity
  8
0
100
AcDbLine
 10
3.0
 20
20.0
 30
0.0
 11
3.0
 21
19.0
 31
0.0
  0
LINE
  5
166A0B99A42C64E
330
166A0B99A429BB3
100
AcDbEntity
  8
0
100
AcDbLine
 10
9.0
 20
6.0
 30
0.0
 11
5.0
 21
6.0
 31
0.0
  0
LINE
  5
166A0B99A42C64F
330
166A0B99A429BB3
100
AcDbEntity
  8
0
100
AcDbLine
 10
5.0
 20
20.0
 30
0.0
 11
3.0
 21
20.0
 31
0.0
  0
LINE
  5
166A0B99A42C650
330
166A0B99A429BB3
100
AcDbEntity
  8
0
100
AcDbLine
 10
5.0
 20
6.0
 30
0.0
 11
5.0
 21
20.0
 31
0.0
  0
LINE
  5
166A0B99A42C657
330
166A0B99A429BB3
100
AcDbEntity
  8
BEMASSUNG
100
AcDbLine
 10
-3.999999999999999
 20
13.75
 30
0.0
 11
-3.999999999999999
 21
5.25
 31
0.0
  0
VIEWPORT
  5
166A0B99A42C5EB
102
{ACAD_XDICTIONARY
360
166A0B99A42C6BE
102
}
330
166A0B99A42C5E4
100
AcDbEntity
 67
     1
  8
0
100
AcDbViewport
 10
143.4359283447265
 20
108.6342536101274
 30
0.0
 40
314.1477025756836
 41
255.0827419674456
 68
     1
 69
     1
 12
143.4359283447265
 22
108.6342536101274
 13
0.0
 23
0.0
 14
10.0
 24
10.0
 15
10.0
 25
10.0
 16
0.0
 26
0.0
 36
1.0
 17
0.0
 27
0.0
 37
0.0
 42
50.0
 43
0.0
 44
0.0
 45
255.0827419674456
 50
0.0
 51
0.0
 72
   100
 90
   819232
  1

281
     0
 71
     1
 74
     0
110
0.0
120
0.0
130
0.0
111
1.0
121
0.0
131
0.0
112
0.0
122
1.0
132
0.0
 79
     0
146
0.0
  0
VIEWPORT
  5
166A0B99A42C5ED
102
{ACAD_XDICTIONARY
360
166A0B99A42C6C0
102
}
330
166A0B99A42C5E4
100
AcDbEntity
 67
     1
  8
BEMASSUNG
100
AcDbViewport
 10
143.4359200000763
 20
99.95958781242372
 30
0.0
 40
229.4974720001221
 41
159.9353404998779
 68
     2
 69
     2
 12
3.0
 22
10.0
 13
0.0
 23
0.0
 14
10.0
 24
10.0
 15
10.0
 25
10.0
 16
0.0
 26
0.0
 36
1.0
 17
0.0
 27
0.0
 37
0.0
 42
50.0
 43
0.0
 44
0.0
 45
20.24539877300613
 50
0.0
 51
0.0
 72
   100
 90
   819232
  1

281
     0
 71
     1
 74
     0
110
0.0
120
0.0
130
0.0
111
1.0
121
0.0
131
0.0
112
0.0
122
1.0
132
0.0
 79
     0
146
0.0
  0
ENDSEC
  0
SECTION
  2
OBJECTS
  0
DICTIONARY
  5
166A0B99A429BA1
330
0
100
AcDbDictionary
281
     1
  3
ACAD_BACKGROUND
350
166A0B99A42A545
  3
ACAD_COLOR
350
166A0B99A429E9A
  3
ACAD_GROUP
350
166A0B99A429BA2
  3
ACAD_LAYOUT
350
166A0B99A429BAE
  3
ACAD_MATERIAL
350
166A0B99A429E85
  3
ACAD_MLEADERSTYLE
350
166A0B99A42C62D
  3
ACAD_MLINESTYLE
350
166A0B99A429BAB
  3
ACAD_PLOTSETTINGS
350
166A0B99A429BAD
  3
ACAD_PLOTSTYLENAME
350
166A0B99A429BA3
  3
ACAD_SCALELIST
350
166A0B99A42C60B
  3
ACAD_TABLESTYLE
350
166A0B99A429E9B
  3
ACAD_VISUALSTYLE
350
166A0B99A429E89
  3
ACDB_RECOMPOSE_DATA
350
166A0B99A42C6B8
  3
AcDbVariableDictionary
350
166A0B99A429E7D
  3
ASE_INDEX_DICTIONARY
350
166A0B99A42A5AD
  3
DWGPROPS
350
166A0B99A42C6B9
  3
Ks_BoltRefDictionary
350
166A0B99A429EB9
  3
Ks_HoleDisplayRefDictionary
350
166A0B99A429EC3
  3
Ks_KoteFlagRefDictionary
350
166A0B99A429EC1
  3
Ks_PartFamilyDictionary
350
166A0B99A42B4BB
  3
Ks_PosFlagRefDictionary
350
166A0B99A429EC2
  3
Ks_ShapeRefDictionary
350
166A0B99A42A1F6
  3
Ks_WeldRefDictionary
350
166A0B99A429EC0
  3
Ks_XRecordDictionary
350
166A0B99A429EC4
  3
PsLizControl
350
166A0B99A429EA0
  0
DICTIONARY
  5
166A0B99A42A201
330
166A0B99A429B9D
100
AcDbDictionary
280
     1
281
     1
  0
DICTIONARY
  5
166A0B99A429ECC
330
166A0B99A429B97
100
AcDbDictionary
280
     1
281
     1
  3
ACAD_LAYERFILTERS
360
166A0B99A42C170
  3
ACAD_LAYERSTATES
360
166A0B99A429ECD
  3
ACLYDICTIONARY
360
166A0B99A42C16F
  0
DICTIONARY
  5
166A0B99A42C660
330
166A0B99A429BA5
100
AcDbDictionary
280
     1
281
     1
  3
ADSK_XREC_LAYER_RECONCILED
360
166A0B99A42C661
  0
DICTIONARY
  5
166A0B99A42C662
330
166A0B99A429E63
100
AcDbDictionary
280
     1
281
     1
  3
ADSK_XREC_LAYER_RECONCILED
360
166A0B99A42C663
  0
DICTIONARY
  5
166A0B99A42C664
330
166A0B99A429E64
100
AcDbDictionary
280
     1
281
     1
  3
ADSK_XREC_LAYER_RECONCILED
360
166A0B99A42C665
  0
DICTIONARY
  5
166A0B99A42C666
330
166A0B99A429E65
100
AcDbDictionary
280
     1
281
     1
  3
ADSK_XREC_LAYER_RECONCILED
360
166A0B99A42C667
  0
DICTIONARY
  5
166A0B99A42C668
330
166A0B99A429E67
100
AcDbDictionary
280
     1
281
     1
  3
ADSK_XREC_LAYER_RECONCILED
360
166A0B99A42C669
  0
DICTIONARY
  5
166A0B99A42C66A
330
166A0B99A429E68
100
AcDbDictionary
280
     1
281
     1
  3
ADSK_XREC_LAYER_RECONCILED
360
166A0B99A42C66B
  0
DICTIONARY
  5
166A0B99A42C66C
330
166A0B99A429E69
100
AcDbDictionary
280
     1
281
     1
  3
ADSK_XREC_LAYER_RECONCILED
360
166A0B99A42C66D
  0
DICTIONARY
  5
166A0B99A42C66E
330
166A0B99A429E6B
100
AcDbDictionary
280
     1
281
     1
  3
ADSK_XREC_LAYER_RECONCILED
360
166A0B99A42C66F
  0
DICTIONARY
  5
166A0B99A42C670
330
166A0B99A429E6C
100
AcDbDictionary
280
     1
281
     1
  3
ADSK_XREC_LAYER_RECONCILED
360
166A0B99A42C671
  0
DICTIONARY
  5
166A0B99A42C672
330
166A0B99A429E6D
100
AcDbDictionary
280
     1
281
     1
  3
ADSK_XREC_LAYER_RECONCILED
360
166A0B99A42C673
  0
DICTIONARY
  5
166A0B99A42C674
330
166A0B99A429E6E
100
AcDbDictionary
280
     1
281
     1
  3
ADSK_XREC_LAYER_RECONCILED
360
166A0B99A42C675
  0
DICTIONARY
  5
166A0B99A42C676
330
166A0B99A429E6F
100
AcDbDictionary
280
     1
281
     1
  3
ADSK_XREC_LAYER_RECONCILED
360
166A0B99A42C677
  0
DICTIONARY
  5
166A0B99A42C678
330
166A0B99A429E70
100
AcDbDictionary
280
     1
281
     1
  3
ADSK_XREC_LAYER_RECONCILED
360
166A0B99A42C679
  0
DICTIONARY
  5
166A0B99A42C67A
330
166A0B99A429E71
100
AcDbDictionary
280
     1
281
     1
  3
ADSK_XREC_LAYER_RECONCILED
360
166A0B99A42C67B
  0
DICTIONARY
  5
166A0B99A42C67C
330
166A0B99A429EA2
100
AcDbDictionary
280
     1
281
     1
  3
ADSK_XREC_LAYER_RECONCILED
360
166A0B99A42C67D
  0
DICTIONARY
  5
166A0B99A42C67E
330
166A0B99A429EA3
100
AcDbDictionary
280
     1
281
     1
  3
ADSK_XREC_LAYER_RECONCILED
360
166A0B99A42C67F
  0
DICTIONARY
  5
166A0B99A42C680
330
166A0B99A429EA4
100
AcDbDictionary
280
     1
281
     1
  3
ADSK_XREC_LAYER_RECONCILED
360
166A0B99A42C681
  0
DICTIONARY
  5
166A0B99A42C682
330
166A0B99A429EA5
100
AcDbDictionary
280
     1
281
     1
  3
ADSK_XREC_LAYER_RECONCILED
360
166A0B99A42C683
  0
DICTIONARY
  5
166A0B99A42C684
330
166A0B99A429EA6
100
AcDbDictionary
280
     1
281
     1
  3
ADSK_XREC_LAYER_RECONCILED
360
166A0B99A42C685
  0
DICTIONARY
  5
166A0B99A42C686
330
166A0B99A429EA7
100
AcDbDictionary
280
     1
281
     1
  3
ADSK_XREC_LAYER_RECONCILED
360
166A0B99A42C687
  0
DICTIONARY
  5
166A0B99A42C688
330
166A0B99A429EA9
100
AcDbDictionary
280
     1
281
     1
  3
ADSK_XREC_LAYER_RECONCILED
360
166A0B99A42C689
  0
DICTIONARY
  5
166A0B99A42C68A
330
166A0B99A429EAA
100
AcDbDictionary
280
     1
281
     1
  3
ADSK_XREC_LAYER_RECONCILED
360
166A0B99A42C68B
  0
DICTIONARY
  5
166A0B99A42C68C
330
166A0B99A429EAC
100
AcDbDictionary
280
     1
281
     1
  3
ADSK_XREC_LAYER_RECONCILED
360
166A0B99A42C68D
  0
DICTIONARY
  5
166A0B99A42C68E
330
166A0B99A429EAD
100
AcDbDictionary
280
     1
281
     1
  3
ADSK_XREC_LAYER_RECONCILED
360
166A0B99A42C68F
  0
DICTIONARY
  5
166A0B99A42C690
330
166A0B99A429EAE
100
AcDbDictionary
280
     1
281
     1
  3
ADSK_XREC_LAYER_RECONCILED
360
166A0B99A42C691
  0
DICTIONARY
  5
166A0B99A42C692
330
166A0B99A429EAF
100
AcDbDictionary
280
     1
281
     1
  3
ADSK_XREC_LAYER_RECONCILED
360
166A0B99A42C693
  0
DICTIONARY
  5
166A0B99A42C694
330
166A0B99A429EB0
100
AcDbDictionary
280
     1
281
     1
  3
ADSK_XREC_LAYER_RECONCILED
360
166A0B99A42C695
  0
DICTIONARY
  5
166A0B99A42C696
330
166A0B99A429EB1
100
AcDbDictionary
280
     1
281
     1
  3
ADSK_XREC_LAYER_RECONCILED
360
166A0B99A42C697
  0
DICTIONARY
  5
166A0B99A42C698
330
166A0B99A429EB2
100
AcDbDictionary
280
     1
281
     1
  3
ADSK_XREC_LAYER_RECONCILED
360
166A0B99A42C699
  0
DICTIONARY
  5
166A0B99A42C69A
330
166A0B99A429EB3
100
AcDbDictionary
280
     1
281
     1
  3
ADSK_XREC_LAYER_RECONCILED
360
166A0B99A42C69B
  0
DICTIONARY
  5
166A0B99A42C69C
330
166A0B99A429EB4
100
AcDbDictionary
280
     1
281
     1
  3
ADSK_XREC_LAYER_RECONCILED
360
166A0B99A42C69D
  0
DICTIONARY
  5
166A0B99A42C69E
330
166A0B99A429EB5
100
AcDbDictionary
280
     1
281
     1
  3
ADSK_XREC_LAYER_RECONCILED
360
166A0B99A42C69F
  0
DICTIONARY
  5
166A0B99A42C6A0
330
166A0B99A42A388
100
AcDbDictionary
280
     1
281
     1
  3
ADSK_XREC_LAYER_RECONCILED
360
166A0B99A42C6A1
  0
DICTIONARY
  5
166A0B99A42C6A2
330
166A0B99A42A38B
100
AcDbDictionary
280
     1
281
     1
  3
ADSK_XREC_LAYER_RECONCILED
360
166A0B99A42C6A3
  0
DICTIONARY
  5
166A0B99A42C6A4
330
166A0B99A42A38C
100
AcDbDictionary
280
     1
281
     1
  3
ADSK_XREC_LAYER_RECONCILED
360
166A0B99A42C6A5
  0
DICTIONARY
  5
166A0B99A42C6A6
330
166A0B99A42A38D
100
AcDbDictionary
280
     1
281
     1
  3
ADSK_XREC_LAYER_RECONCILED
360
166A0B99A42C6A7
  0
DICTIONARY
  5
166A0B99A42C6A8
330
166A0B99A42A38E
100
AcDbDictionary
280
     1
281
     1
  3
ADSK_XREC_LAYER_RECONCILED
360
166A0B99A42C6A9
  0
DICTIONARY
  5
166A0B99A42C6AA
330
166A0B99A42A38F
100
AcDbDictionary
280
     1
281
     1
  3
ADSK_XREC_LAYER_RECONCILED
360
166A0B99A42C6AB
  0
DICTIONARY
  5
166A0B99A42C6AC
330
166A0B99A42A390
100
AcDbDictionary
280
     1
281
     1
  3
ADSK_XREC_LAYER_RECONCILED
360
166A0B99A42C6AD
  0
DICTIONARY
  5
166A0B99A42C6AE
330
166A0B99A42A392
100
AcDbDictionary
280
     1
281
     1
  3
ADSK_XREC_LAYER_RECONCILED
360
166A0B99A42C6AF
  0
DICTIONARY
  5
166A0B99A42C6B0
330
166A0B99A42A393
100
AcDbDictionary
280
     1
281
     1
  3
ADSK_XREC_LAYER_RECONCILED
360
166A0B99A42C6B1
  0
DICTIONARY
  5
166A0B99A42C6B2
330
166A0B99A42C16D
100
AcDbDictionary
280
     1
281
     1
  3
ADSK_XREC_LAYER_RECONCILED
360
166A0B99A42C6B3
  0
DICTIONARY
  5
166A0B99A429EDB
330
166A0B99A429BB3
100
AcDbDictionary
280
     1
281
     1
  3
ACAD_SORTENTS
360
166A0B99A429EDC
  0
DICTIONARY
  5
166A0B99A42C007
330
166A0B99A42C005
100
AcDbDictionary
280
     1
281
     1
  3
ACAD_SORTENTS
360
166A0B99A42C008
  0
DICTIONARY
  5
166A0B99A42C6BE
330
166A0B99A42C5EB
100
AcDbDictionary
280
     1
281
     1
  3
ACAD_XREC_ROUNDTRIP
360
166A0B99A42C6BF
  0
DICTIONARY
  5
166A0B99A42C6C0
330
166A0B99A42C5ED
100
AcDbDictionary
280
     1
281
     1
  3
ACAD_XREC_ROUNDTRIP
360
166A0B99A42C6C1
  0
DICTIONARY
  5
166A0B99A42A545
102
{ACAD_REACTORS
330
166A0B99A429BA1
102
}
330
166A0B99A429BA1
100
AcDbDictionary
281
     1
  0
DICTIONARY
  5
166A0B99A429E9A
102
{ACAD_REACTORS
330
166A0B99A429BA1
102
}
330
166A0B99A429BA1
100
AcDbDictionary
281
     1
  0
DICTIONARY
  5
166A0B99A429BA2
102
{ACAD_REACTORS
330
166A0B99A429BA1
102
}
330
166A0B99A429BA1
100
AcDbDictionary
281
     1
  0
DICTIONARY
  5
166A0B99A429BAE
102
{ACAD_REACTORS
330
166A0B99A429BA1
102
}
330
166A0B99A429BA1
100
AcDbDictionary
281
     1
  3
Layout1
350
166A0B99A42C5E5
  3
Model
350
166A0B99A429BB6
  0
DICTIONARY
  5
166A0B99A429E85
102
{ACAD_REACTORS
330
166A0B99A429BA1
102
}
330
166A0B99A429BA1
100
AcDbDictionary
281
     1
  3
ByBlock
350
166A0B99A429E87
  3
ByLayer
350
166A0B99A429E86
  3
Global
350
166A0B99A429E88
  0
DICTIONARY
  5
166A0B99A42C62D
102
{ACAD_REACTORS
330
166A0B99A429BA1
102
}
330
166A0B99A429BA1
100
AcDbDictionary
281
     1
  3
Standard
350
166A0B99A42C62E
  0
DICTIONARY
  5
166A0B99A429BAB
102
{ACAD_REACTORS
330
166A0B99A429BA1
102
}
330
166A0B99A429BA1
100
AcDbDictionary
281
     1
  3
Standard
350
166A0B99A429BAC
  0
DICTIONARY
  5
166A0B99A429BAD
102
{ACAD_REACTORS
330
166A0B99A429BA1
102
}
330
166A0B99A429BA1
100
AcDbDictionary
281
     1
  0
ACDBDICTIONARYWDFLT
  5
166A0B99A429BA3
102
{ACAD_REACTORS
330
166A0B99A429BA1
102
}
330
166A0B99A429BA1
100
AcDbDictionary
281
     1
  3
Normal
350
166A0B99A429BA4
100
AcDbDictionaryWithDefault
340
166A0B99A429BA4
  0
DICTIONARY
  5
166A0B99A42C60B
102
{ACAD_REACTORS
330
166A0B99A429BA1
102
}
330
166A0B99A429BA1
100
AcDbDictionary
281
     1
  3
A0
350
166A0B99A42C60C
  3
A1
350
166A0B99A42C60D
  3
A2
350
166A0B99A42C60E
  3
A3
350
166A0B99A42C60F
  3
A4
350
166A0B99A42C610
  3
A5
350
166A0B99A42C611
  3
A6
350
166A0B99A42C612
  3
A7
350
166A0B99A42C613
  3
A8
350
166A0B99A42C614
  3
A9
350
166A0B99A42C615
  3
B0
350
166A0B99A42C616
  3
B1
350
166A0B99A42C617
  3
B2
350
166A0B99A42C618
  3
B3
350
166A0B99A42C619
  3
B4
350
166A0B99A42C61A
  3
B5
350
166A0B99A42C61B
  3
B6
350
166A0B99A42C61C
  3
B7
350
166A0B99A42C61D
  3
B8
350
166A0B99A42C61E
  3
B9
350
166A0B99A42C61F
  3
C0
350
166A0B99A42C620
  3
C1
350
166A0B99A42C621
  3
C2
350
166A0B99A42C622
  3
C3
350
166A0B99A42C623
  3
C4
350
166A0B99A42C624
  3
C5
350
166A0B99A42C625
  3
C6
350
166A0B99A42C626
  3
C7
350
166A0B99A42C627
  3
C8
350
166A0B99A42C628
  3
C9
350
166A0B99A42C629
  3
D0
350
166A0B99A42C62A
  3
D1
350
166A0B99A42C62B
  3
D2
350
166A0B99A42C62C
  0
DICTIONARY
  5
166A0B99A429E9B
102
{ACAD_REACTORS
330
166A0B99A429BA1
102
}
330
166A0B99A429BA1
100
AcDbDictionary
281
     1
  3
Standard
350
166A0B99A429E9C
  0
DICTIONARY
  5
166A0B99A429E89
102
{ACAD_REACTORS
330
166A0B99A429BA1
102
}
330
166A0B99A429BA1
100
AcDbDictionary
281
     1
  3
2dWireframe
350
166A0B99A429E8F
  3
3D Hidden
350
166A0B99A429E91
  3
3dWireframe
350
166A0B99A429E90
  3
Basic
350
166A0B99A429E8E
  3
Brighten
350
166A0B99A429E95
  3
ColorChange
350
166A0B99A429E99
  3
Conceptual
350
166A0B99A429E92
  3
Dim
350
166A0B99A429E94
  3
Facepattern
350
166A0B99A429E98
  3
Flat
350
166A0B99A429E8A
  3
FlatWithEdges
350
166A0B99A429E8B
  3
Gouraud
350
166A0B99A429E8C
  3
GouraudWithEdges
350
166A0B99A429E8D
  3
Linepattern
350
166A0B99A429E97
  3
Realistic
350
166A0B99A429E93
  3
Thicken
350
166A0B99A429E96
  0
XRECORD
  5
166A0B99A42C6B8
102
{ACAD_REACTORS
330
166A0B99A429BA1
102
}
330
166A0B99A429BA1
100
AcDbXrecord
280
     1
 90
        1
330
166A0B99A429E9C
  0
DICTIONARY
  5
166A0B99A429E7D
102
{ACAD_REACTORS
330
166A0B99A429BA1
102
}
330
166A0B99A429BA1
100
AcDbDictionary
281
     1
  3
CANNOSCALE
350
166A0B99A42C6B5
  3
CMLEADERSTYLE
350
166A0B99A42C6B4
  3
CTABLESTYLE
350
166A0B99A42A267
  3
DIMASSOC
350
166A0B99A429E7F
  3
HIDETEXT
350
166A0B99A429E7E
  3
INDEXCTL
350
166A0B99A42C5C4
  3
SORTENTS
350
166A0B99A42C5C3
  0
DICTIONARY
  5
166A0B99A42A5AD
102
{ACAD_REACTORS
330
166A0B99A429BA1
102
}
330
166A0B99A429BA1
100
AcDbDictionary
281
     1
  3
ASEBlockHierarchyIndexRecord
350
166A0B99A42A5AE
1001
DCO15
1040
1618138933.298
  0
XRECORD
  5
166A0B99A42C6B9
102
{ACAD_REACTORS
330
166A0B99A429BA1
102
}
330
166A0B99A429BA1
100
AcDbXrecord
280
     1
  1
DWGPROPS COOKIE
  2

  3

  4

  6

  7

  8
AR
  9

300
=
301
=
302
=
303
=
304
=
305
=
306
=
307
=
308
=
309
=
 40
0.3296209490740741
 41
2451766.297739352
 42
2455183.519421782
  1

 90
        0
  0
DICTIONARY
  5
166A0B99A429EB9
102
{ACAD_REACTORS
330
166A0B99A429BA1
102
}
330
166A0B99A429BA1
100
AcDbDictionary
281
     1
  3
A307 FIELD
350
166A0B99A42C634
  3
A307 SHOP
350
166A0B99A42C635
  3
A325 FIELD
350
166A0B99A42C636
  3
A325 SHOP
350
166A0B99A42C637
  3
A490 FIELD
350
166A0B99A42C638
  3
A490 SHOP
350
166A0B99A42C639
  0
DICTIONARY
  5
166A0B99A429EC3
102
{ACAD_REACTORS
330
166A0B99A429BA1
102
}
330
166A0B99A429BA1
100
AcDbDictionary
281
     1
  0
DICTIONARY
  5
166A0B99A429EC1
102
{ACAD_REACTORS
330
166A0B99A429BA1
102
}
330
166A0B99A429BA1
100
AcDbDictionary
281
     1
  0
DICTIONARY
  5
166A0B99A42B4BB
102
{ACAD_REACTORS
330
166A0B99A429BA1
102
}
330
166A0B99A429BA1
100
AcDbDictionary
281
     1
  0
DICTIONARY
  5
166A0B99A429EC2
102
{ACAD_REACTORS
330
166A0B99A429BA1
102
}
330
166A0B99A429BA1
100
AcDbDictionary
281
     1
  0
DICTIONARY
  5
166A0B99A42A1F6
102
{ACAD_REACTORS
330
166A0B99A429BA1
102
}
330
166A0B99A429BA1
100
AcDbDictionary
281
     1
  0
DICTIONARY
  5
166A0B99A429EC0
102
{ACAD_REACTORS
330
166A0B99A429BA1
102
}
330
166A0B99A429BA1
100
AcDbDictionary
281
     1
  0
DICTIONARY
  5
166A0B99A429EC4
102
{ACAD_REACTORS
330
166A0B99A429BA1
102
}
330
166A0B99A429BA1
100
AcDbDictionary
281
     1
  3
KS_MEASUREMENT
350
166A0B99A429EC5
  3
PsAreaDictionary_17
350
166A0B99A429EC8
  3
PsHideDictionary_17
350
166A0B99A429EC7
  3
PsSCreenSettings
350
166A0B99A42A1F7
  0
DICTIONARY
  5
166A0B99A429EA0
102
{ACAD_REACTORS
330
166A0B99A429BA1
102
}
330
166A0B99A429BA1
100
AcDbDictionary
281
     1
  3
0
350
166A0B99A429EA1
  0
DICTIONARY
  5
166A0B99A42C170
102
{ACAD_REACTORS
330
166A0B99A429ECC
102
}
330
166A0B99A429ECC
100
AcDbDictionary
281
     1
  0
DICTIONARY
  5
166A0B99A429ECD
102
{ACAD_REACTORS
330
166A0B99A429ECC
102
}
330
166A0B99A429ECC
100
AcDbDictionary
281
     1
  0
DICTIONARY
  5
166A0B99A42C16F
102
{ACAD_REACTORS
330
166A0B99A429ECC
102
}
330
166A0B99A429ECC
100
AcDbDictionary
281
     1
1001
ACAD
1000
<All
  0
XRECORD
  5
166A0B99A42C661
102
{ACAD_REACTORS
330
166A0B99A42C660
102
}
330
166A0B99A42C660
100
AcDbXrecord
280
     1
290
     1
  0
XRECORD
  5
166A0B99A42C663
102
{ACAD_REACTORS
330
166A0B99A42C662
102
}
330
166A0B99A42C662
100
AcDbXrecord
280
     1
290
     1
  0
XRECORD
  5
166A0B99A42C665
102
{ACAD_REACTORS
330
166A0B99A42C664
102
}
330
166A0B99A42C664
100
AcDbXrecord
280
     1
290
     1
  0
XRECORD
  5
166A0B99A42C667
102
{ACAD_REACTORS
330
166A0B99A42C666
102
}
330
166A0B99A42C666
100
AcDbXrecord
280
     1
290
     1
  0
XRECORD
  5
166A0B99A42C669
102
{ACAD_REACTORS
330
166A0B99A42C668
102
}
330
166A0B99A42C668
100
AcDbXrecord
280
     1
290
     1
  0
XRECORD
  5
166A0B99A42C66B
102
{ACAD_REACTORS
330
166A0B99A42C66A
102
}
330
166A0B99A42C66A
100
AcDbXrecord
280
     1
290
     1
  0
XRECORD
  5
166A0B99A42C66D
102
{ACAD_REACTORS
330
166A0B99A42C66C
102
}
330
166A0B99A42C66C
100
AcDbXrecord
280
     1
290
     1
  0
XRECORD
  5
166A0B99A42C66F
102
{ACAD_REACTORS
330
166A0B99A42C66E
102
}
330
166A0B99A42C66E
100
AcDbXrecord
280
     1
290
     1
  0
XRECORD
  5
166A0B99A42C671
102
{ACAD_REACTORS
330
166A0B99A42C670
102
}
330
166A0B99A42C670
100
AcDbXrecord
280
     1
290
     1
  0
XRECORD
  5
166A0B99A42C673
102
{ACAD_REACTORS
330
166A0B99A42C672
102
}
330
166A0B99A42C672
100
AcDbXrecord
280
     1
290
     1
  0
XRECORD
  5
166A0B99A42C675
102
{ACAD_REACTORS
330
166A0B99A42C674
102
}
330
166A0B99A42C674
100
AcDbXrecord
280
     1
290
     1
  0
XRECORD
  5
166A0B99A42C677
102
{ACAD_REACTORS
330
166A0B99A42C676
102
}
330
166A0B99A42C676
100
AcDbXrecord
280
     1
290
     1
  0
XRECORD
  5
166A0B99A42C679
102
{ACAD_REACTORS
330
166A0B99A42C678
102
}
330
166A0B99A42C678
100
AcDbXrecord
280
     1
290
     1
  0
XRECORD
  5
166A0B99A42C67B
102
{ACAD_REACTORS
330
166A0B99A42C67A
102
}
330
166A0B99A42C67A
100
AcDbXrecord
280
     1
290
     1
  0
XRECORD
  5
166A0B99A42C67D
102
{ACAD_REACTORS
330
166A0B99A42C67C
102
}
330
166A0B99A42C67C
100
AcDbXrecord
280
     1
290
     1
  0
XRECORD
  5
166A0B99A42C67F
102
{ACAD_REACTORS
330
166A0B99A42C67E
102
}
330
166A0B99A42C67E
100
AcDbXrecord
280
     1
290
     1
  0
XRECORD
  5
166A0B99A42C681
102
{ACAD_REACTORS
330
166A0B99A42C680
102
}
330
166A0B99A42C680
100
AcDbXrecord
280
     1
290
     1
  0
XRECORD
  5
166A0B99A42C683
102
{ACAD_REACTORS
330
166A0B99A42C682
102
}
330
166A0B99A42C682
100
AcDbXrecord
280
     1
290
     1
  0
XRECORD
  5
166A0B99A42C685
102
{ACAD_REACTORS
330
166A0B99A42C684
102
}
330
166A0B99A42C684
100
AcDbXrecord
280
     1
290
     1
  0
XRECORD
  5
166A0B99A42C687
102
{ACAD_REACTORS
330
166A0B99A42C686
102
}
330
166A0B99A42C686
100
AcDbXrecord
280
     1
290
     1
  0
XRECORD
  5
166A0B99A42C689
102
{ACAD_REACTORS
330
166A0B99A42C688
102
}
330
166A0B99A42C688
100
AcDbXrecord
280
     1
290
     1
  0
XRECORD
  5
166A0B99A42C68B
102
{ACAD_REACTORS
330
166A0B99A42C68A
102
}
330
166A0B99A42C68A
100
AcDbXrecord
280
     1
290
     1
  0
XRECORD
  5
166A0B99A42C68D
102
{ACAD_REACTORS
330
166A0B99A42C68C
102
}
330
166A0B99A42C68C
100
AcDbXrecord
280
     1
290
     1
  0
XRECORD
  5
166A0B99A42C68F
102
{ACAD_REACTORS
330
166A0B99A42C68E
102
}
330
166A0B99A42C68E
100
AcDbXrecord
280
     1
290
     1
  0
XRECORD
  5
166A0B99A42C691
102
{ACAD_REACTORS
330
166A0B99A42C690
102
}
330
166A0B99A42C690
100
AcDbXrecord
280
     1
290
     1
  0
XRECORD
  5
166A0B99A42C693
102
{ACAD_REACTORS
330
166A0B99A42C692
102
}
330
166A0B99A42C692
100
AcDbXrecord
280
     1
290
     1
  0
XRECORD
  5
166A0B99A42C695
102
{ACAD_REACTORS
330
166A0B99A42C694
102
}
330
166A0B99A42C694
100
AcDbXrecord
280
     1
290
     1
  0
XRECORD
  5
166A0B99A42C697
102
{ACAD_REACTORS
330
166A0B99A42C696
102
}
330
166A0B99A42C696
100
AcDbXrecord
280
     1
290
     1
  0
XRECORD
  5
166A0B99A42C699
102
{ACAD_REACTORS
330
166A0B99A42C698
102
}
330
166A0B99A42C698
100
AcDbXrecord
280
     1
290
     1
  0
XRECORD
  5
166A0B99A42C69B
102
{ACAD_REACTORS
330
166A0B99A42C69A
102
}
330
166A0B99A42C69A
100
AcDbXrecord
280
     1
290
     1
  0
XRECORD
  5
166A0B99A42C69D
102
{ACAD_REACTORS
330
166A0B99A42C69C
102
}
330
166A0B99A42C69C
100
AcDbXrecord
280
     1
290
     1
  0
XRECORD
  5
166A0B99A42C69F
102
{ACAD_REACTORS
330
166A0B99A42C69E
102
}
330
166A0B99A42C69E
100
AcDbXrecord
280
     1
290
     1
  0
XRECORD
  5
166A0B99A42C6A1
102
{ACAD_REACTORS
330
166A0B99A42C6A0
102
}
330
166A0B99A42C6A0
100
AcDbXrecord
280
     1
290
     1
  0
XRECORD
  5
166A0B99A42C6A3
102
{ACAD_REACTORS
330
166A0B99A42C6A2
102
}
330
166A0B99A42C6A2
100
AcDbXrecord
280
     1
290
     1
  0
XRECORD
  5
166A0B99A42C6A5
102
{ACAD_REACTORS
330
166A0B99A42C6A4
102
}
330
166A0B99A42C6A4
100
AcDbXrecord
280
     1
290
     1
  0
XRECORD
  5
166A0B99A42C6A7
102
{ACAD_REACTORS
330
166A0B99A42C6A6
102
}
330
166A0B99A42C6A6
100
AcDbXrecord
280
     1
290
     1
  0
XRECORD
  5
166A0B99A42C6A9
102
{ACAD_REACTORS
330
166A0B99A42C6A8
102
}
330
166A0B99A42C6A8
100
AcDbXrecord
280
     1
290
     1
  0
XRECORD
  5
166A0B99A42C6AB
102
{ACAD_REACTORS
330
166A0B99A42C6AA
102
}
330
166A0B99A42C6AA
100
AcDbXrecord
280
     1
290
     1
  0
XRECORD
  5
166A0B99A42C6AD
102
{ACAD_REACTORS
330
166A0B99A42C6AC
102
}
330
166A0B99A42C6AC
100
AcDbXrecord
280
     1
290
     1
  0
XRECORD
  5
166A0B99A42C6AF
102
{ACAD_REACTORS
330
166A0B99A42C6AE
102
}
330
166A0B99A42C6AE
100
AcDbXrecord
280
     1
290
     1
  0
XRECORD
  5
166A0B99A42C6B1
102
{ACAD_REACTORS
330
166A0B99A42C6B0
102
}
330
166A0B99A42C6B0
100
AcDbXrecord
280
     1
290
     1
  0
XRECORD
  5
166A0B99A42C6B3
102
{ACAD_REACTORS
330
166A0B99A42C6B2
102
}
330
166A0B99A42C6B2
100
AcDbXrecord
280
     1
290
     1
  0
SORTENTSTABLE
  5
166A0B99A429EDC
102
{ACAD_REACTORS
330
166A0B99A429EDB
102
}
330
166A0B99A429EDB
100
AcDbSortentsTable
330
166A0B99A429BB3
331
166A0B99A42C642
  5
166A0B99A42C642
331
166A0B99A42240A
  5
166A0B99A42240A
331
166A0B99A42C64F
  5
166A0B99A42C64F
331
166A0B99A424F50
  5
166A0B99A42A8A6
331
166A0B99A42C64D
  5
166A0B99A42C64D
331
166A0B99A42C64B
  5
166A0B99A42C64B
331
166A0B99A42C649
  5
166A0B99A42C649
331
166A0B99A4249B9
  5
166A0B99A42A81A
331
166A0B99A42C647
  5
166A0B99A42C647
331
166A0B99A424975
  5
166A0B99A42A818
331
166A0B99A4249DC
  5
166A0B99A42A81B
331
166A0B99A42240B
  5
166A0B99A42240B
331
166A0B99A422409
  5
166A0B99A422409
331
166A0B99A42C650
  5
166A0B99A42C650
331
166A0B99A42C64E
  5
166A0B99A42C64E
331
166A0B99A42C64C
  5
166A0B99A42C64C
331
166A0B99A4244F3
  5
166A0B99A42A816
331
166A0B99A42C64A
  5
166A0B99A42C64A
331
FD790
  5
FD790
331
166A0B99A42C648
  5
166A0B99A42C648
331
166A0B99A424A71
  5
166A0B99A42A823
331
166A0B99A42C646
  5
166A0B99A42C646
331
166A0B99A424976
  5
166A0B99A42A819
331
166A0B99A42C644
  5
166A0B99A42C644
331
166A0B99A4249DD
  5
166A0B99A42A81C
331
166A0B99A424974
  5
166A0B99A42A817
  0
SORTENTSTABLE
  5
166A0B99A42C008
102
{ACAD_REACTORS
330
166A0B99A42C007
102
}
330
166A0B99A42C007
100
AcDbSortentsTable
330
166A0B99A42C005
  0
XRECORD
  5
166A0B99A42C6BF
102
{ACAD_REACTORS
330
166A0B99A42C6BE
102
}
330
166A0B99A42C6BE
100
AcDbXrecord
280
     1
102
SHADEPLOT
 70
     0
  0
XRECORD
  5
166A0B99A42C6C1
102
{ACAD_REACTORS
330
166A0B99A42C6C0
102
}
330
166A0B99A42C6C0
100
AcDbXrecord
280
     1
102
SHADEPLOT
 70
     0
  0
LAYOUT
  5
166A0B99A42C5E5
102
{ACAD_XDICTIONARY
360
166A0B99A42C5F2
102
}
102
{ACAD_REACTORS
330
166A0B99A429BAE
102
}
330
166A0B99A429BAE
100
AcDbPlotSettings
  1

  2
\\PDC1\KONICA MINOLTA C351 PCL
  4
A4
  6

 40
5.027082920074462
 41
5.027085781097412
 42
5.027069091796875
 43
5.027069091796875
 44
209.9733276367187
 45
296.9259948730469
 46
0.0
 47
0.0
 48
0.0
 49
0.0
140
0.0
141
0.0
142
1.0
143
1.0
 70
   688
 72
     1
 73
     1
 74
     5
  7

 75
    16
147
1.0
148
0.0
149
0.0
100
AcDbLayout
  1
Layout1
 70
     1
 71
     1
 10
-5.027069091796875
 20
-5.027082920074462
 11
291.89892578125
 21
204.9462447166443
 12
0.0
 22
0.0
 32
0.0
 14
28.68718400001525
 24
19.99191756248477
 34
0.0
 15
258.1846560001373
 25
179.9272580623627
 35
0.0
146
0.0
 13
0.0
 23
0.0
 33
0.0
 16
1.0
 26
0.0
 36
0.0
 17
0.0
 27
1.0
 37
0.0
 76
     0
330
166A0B99A42C5E4
331
166A0B99A42C5EB
1001
ACAD_PSEXT
1000
\\PDC1\KONICA MINOLTA C351 PCL
1000
KONICA MINOLTA C351 PCL
1000
\\PDC1
1000

1070
     0
  0
LAYOUT
  5
166A0B99A429BB6
102
{ACAD_XDICTIONARY
360
166A0B99A42C6BA
102
}
102
{ACAD_REACTORS
330
166A0B99A429BAE
102
}
330
166A0B99A429BAE
100
AcDbPlotSettings
  1

  2
none_device
  4
ISO_A4_(210.00_x_297.00_MM)
  6

 40
7.5
 41
20.0
 42
7.5
 43
20.0
 44
210.0
 45
297.0
 46
0.0
 47
0.0
 48
0.0
 49
0.0
140
0.0
141
0.0
142
1.0
143
0.4375139684156287
 70
 11952
 72
     1
 73
     1
 74
     0
  7

 75
     0
147
2.285641310199316
148
-5264.008444382268
149
-8001.906469178942
100
AcDbLayout
  1
Model
 70
     1
 71
     0
 10
0.0
 20
0.0
 11
12.0
 21
9.0
 12
0.0
 22
0.0
 32
0.0
 14
0.0
 24
0.0
 34
0.0
 15
0.0
 25
0.0
 35
0.0
146
0.0
 13
0.0
 23
0.0
 33
0.0
 16
1.0
 26
0.0
 36
0.0
 17
0.0
 27
1.0
 37
0.0
 76
     0
330
166A0B99A429BB3
331
166A0B99A429E5B
1001
ACAD_PSEXT
1000
Kein
1000
Kein
1000
Nicht anwendbar
1000
Das Layout wird erst geplottet, wenn ein neuer Plotter-Konfigurationsname ausgewählt wird.
1070
     0
  0
MATERIAL
  5
166A0B99A429E87
102
{ACAD_XDICTIONARY
360
166A0B99A42C5CA
102
}
102
{ACAD_REACTORS
330
166A0B99A429E85
102
}
330
166A0B99A429E85
100
AcDbMaterial
  1
ByBlock
  0
MATERIAL
  5
166A0B99A429E86
102
{ACAD_XDICTIONARY
360
166A0B99A42C5C8
102
}
102
{ACAD_REACTORS
330
166A0B99A429E85
102
}
330
166A0B99A429E85
100
AcDbMaterial
  1
ByLayer
  0
MATERIAL
  5
166A0B99A429E88
102
{ACAD_XDICTIONARY
360
166A0B99A42C5CC
102
}
102
{ACAD_REACTORS
330
166A0B99A429E85
102
}
330
166A0B99A429E85
100
AcDbMaterial
  1
Global
  0
MLEADERSTYLE
  5
166A0B99A42C62E
102
{ACAD_REACTORS
330
166A0B99A42C62D
102
}
330
166A0B99A42C62D
100
AcDbMLeaderStyle
170
     2
171
     1
172
     0
 90
        2
 40
0.0
 41
0.0
173
     1
 91
-1056964608
340
166A0B99A429BA8
 92
       -2
290
     1
 42
2.0
291
     1
 43
0.36
  3
Standard
 44
4.0
300

342
166A0B99A429BA6
174
     1
178
     6
175
     1
176
     0
 93
-1056964608
 45
4.0
292
     0
297
     0
 46
4.0
 94
-1056964608
 47
1.0
 49
1.0
140
1.0
293
     1
141
0.0
294
     1
177
     0
142
1.0
295
     0
296
     0
143
0.125
1001
ACAD_MLEADERVER
1070
     2
  0
MLINESTYLE
  5
166A0B99A429BAC
102
{ACAD_REACTORS
330
166A0B99A429BAB
102
}
330
166A0B99A429BAB
100
AcDbMlineStyle
  2
STANDARD
 70
     0
  3

 62
   256
 51
90.0
 52
90.0
 71
     2
 49
0.5
 62
   256
  6
BYLAYER
 49
-0.5
 62
   256
  6
BYLAYER
  0
ACDBPLACEHOLDER
  5
166A0B99A429BA4
102
{ACAD_REACTORS
330
166A0B99A429BA3
102
}
330
166A0B99A429BA3
  0
SCALE
  5
166A0B99A42C60C
102
{ACAD_REACTORS
330
166A0B99A42C60B
102
}
330
166A0B99A42C60B
100
AcDbScale
 70
     0
300
1:1
140
1.0
141
1.0
290
     1
  0
SCALE
  5
166A0B99A42C60D
102
{ACAD_REACTORS
330
166A0B99A42C60B
102
}
330
166A0B99A42C60B
100
AcDbScale
 70
     0
300
1:2
140
1.0
141
2.0
290
     0
  0
SCALE
  5
166A0B99A42C60E
102
{ACAD_REACTORS
330
166A0B99A42C60B
102
}
330
166A0B99A42C60B
100
AcDbScale
 70
     0
300
1:4
140
1.0
141
4.0
290
     0
  0
SCALE
  5
166A0B99A42C60F
102
{ACAD_REACTORS
330
166A0B99A42C60B
102
}
330
166A0B99A42C60B
100
AcDbScale
 70
     0
300
1:5
140
1.0
141
5.0
290
     0
  0
SCALE
  5
166A0B99A42C610
102
{ACAD_REACTORS
330
166A0B99A42C60B
102
}
330
166A0B99A42C60B
100
AcDbScale
 70
     0
300
1:8
140
1.0
141
8.0
290
     0
  0
SCALE
  5
166A0B99A42C611
102
{ACAD_REACTORS
330
166A0B99A42C60B
102
}
330
166A0B99A42C60B
100
AcDbScale
 70
     0
300
1:10
140
1.0
141
10.0
290
     0
  0
SCALE
  5
166A0B99A42C612
102
{ACAD_REACTORS
330
166A0B99A42C60B
102
}
330
166A0B99A42C60B
100
AcDbScale
 70
     0
300
1:16
140
1.0
141
16.0
290
     0
  0
SCALE
  5
166A0B99A42C613
102
{ACAD_REACTORS
330
166A0B99A42C60B
102
}
330
166A0B99A42C60B
100
AcDbScale
 70
     0
300
1:20
140
1.0
141
20.0
290
     0
  0
SCALE
  5
166A0B99A42C614
102
{ACAD_REACTORS
330
166A0B99A42C60B
102
}
330
166A0B99A42C60B
100
AcDbScale
 70
     0
300
1:30
140
1.0
141
30.0
290
     0
  0
SCALE
  5
166A0B99A42C615
102
{ACAD_REACTORS
330
166A0B99A42C60B
102
}
330
166A0B99A42C60B
100
AcDbScale
 70
     0
300
1:40
140
1.0
141
40.0
290
     0
  0
SCALE
  5
166A0B99A42C616
102
{ACAD_REACTORS
330
166A0B99A42C60B
102
}
330
166A0B99A42C60B
100
AcDbScale
 70
     0
300
1:50
140
1.0
141
50.0
290
     0
  0
SCALE
  5
166A0B99A42C617
102
{ACAD_REACTORS
330
166A0B99A42C60B
102
}
330
166A0B99A42C60B
100
AcDbScale
 70
     0
300
1:100
140
1.0
141
100.0
290
     0
  0
SCALE
  5
166A0B99A42C618
102
{ACAD_REACTORS
330
166A0B99A42C60B
102
}
330
166A0B99A42C60B
100
AcDbScale
 70
     0
300
2:1
140
2.0
141
1.0
290
     0
  0
SCALE
  5
166A0B99A42C619
102
{ACAD_REACTORS
330
166A0B99A42C60B
102
}
330
166A0B99A42C60B
100
AcDbScale
 70
     0
300
4:1
140
4.0
141
1.0
290
     0
  0
SCALE
  5
166A0B99A42C61A
102
{ACAD_REACTORS
330
166A0B99A42C60B
102
}
330
166A0B99A42C60B
100
AcDbScale
 70
     0
300
8:1
140
8.0
141
1.0
290
     0
  0
SCALE
  5
166A0B99A42C61B
102
{ACAD_REACTORS
330
166A0B99A42C60B
102
}
330
166A0B99A42C60B
100
AcDbScale
 70
     0
300
10:1
140
10.0
141
1.0
290
     0
  0
SCALE
  5
166A0B99A42C61C
102
{ACAD_REACTORS
330
166A0B99A42C60B
102
}
330
166A0B99A42C60B
100
AcDbScale
 70
     0
300
100:1
140
100.0
141
1.0
290
     0
  0
SCALE
  5
166A0B99A42C61D
102
{ACAD_REACTORS
330
166A0B99A42C60B
102
}
330
166A0B99A42C60B
100
AcDbScale
 70
     0
300
1/128" = 1'-0"
140
0.0078125
141
12.0
290
     0
  0
SCALE
  5
166A0B99A42C61E
102
{ACAD_REACTORS
330
166A0B99A42C60B
102
}
330
166A0B99A42C60B
100
AcDbScale
 70
     0
300
1/64" = 1'-0"
140
0.015625
141
12.0
290
     0
  0
SCALE
  5
166A0B99A42C61F
102
{ACAD_REACTORS
330
166A0B99A42C60B
102
}
330
166A0B99A42C60B
100
AcDbScale
 70
     0
300
1/32" = 1'-0"
140
0.03125
141
12.0
290
     0
  0
SCALE
  5
166A0B99A42C620
102
{ACAD_REACTORS
330
166A0B99A42C60B
102
}
330
166A0B99A42C60B
100
AcDbScale
 70
     0
300
1/16" = 1'-0"
140
0.0625
141
12.0
290
     0
  0
SCALE
  5
166A0B99A42C621
102
{ACAD_REACTORS
330
166A0B99A42C60B
102
}
330
166A0B99A42C60B
100
AcDbScale
 70
     0
300
3/32" = 1'-0"
140
0.09375
141
12.0
290
     0
  0
SCALE
  5
166A0B99A42C622
102
{ACAD_REACTORS
330
166A0B99A42C60B
102
}
330
166A0B99A42C60B
100
AcDbScale
 70
     0
300
1/8" = 1'-0"
140
0.125
141
12.0
290
     0
  0
SCALE
  5
166A0B99A42C623
102
{ACAD_REACTORS
330
166A0B99A42C60B
102
}
330
166A0B99A42C60B
100
AcDbScale
 70
     0
300
3/16" = 1'-0"
140
0.1875
141
12.0
290
     0
  0
SCALE
  5
166A0B99A42C624
102
{ACAD_REACTORS
330
166A0B99A42C60B
102
}
330
166A0B99A42C60B
100
AcDbScale
 70
     0
300
1/4" = 1'-0"
140
0.25
141
12.0
290
     0
  0
SCALE
  5
166A0B99A42C625
102
{ACAD_REACTORS
330
166A0B99A42C60B
102
}
330
166A0B99A42C60B
100
AcDbScale
 70
     0
300
3/8" = 1'-0"
140
0.375
141
12.0
290
     0
  0
SCALE
  5
166A0B99A42C626
102
{ACAD_REACTORS
330
166A0B99A42C60B
102
}
330
166A0B99A42C60B
100
AcDbScale
 70
     0
300
1/2" = 1'-0"
140
0.5
141
12.0
290
     0
  0
SCALE
  5
166A0B99A42C627
102
{ACAD_REACTORS
330
166A0B99A42C60B
102
}
330
166A0B99A42C60B
100
AcDbScale
 70
     0
300
3/4" = 1'-0"
140
0.75
141
12.0
290
     0
  0
SCALE
  5
166A0B99A42C628
102
{ACAD_REACTORS
330
166A0B99A42C60B
102
}
330
166A0B99A42C60B
100
AcDbScale
 70
     0
300
1" = 1'-0"
140
1.0
141
12.0
290
     0
  0
SCALE
  5
166A0B99A42C629
102
{ACAD_REACTORS
330
166A0B99A42C60B
102
}
330
166A0B99A42C60B
100
AcDbScale
 70
     0
300
1-1/2" = 1'-0"
140
1.5
141
12.0
290
     0
  0
SCALE
  5
166A0B99A42C62A
102
{ACAD_REACTORS
330
166A0B99A42C60B
102
}
330
166A0B99A42C60B
100
AcDbScale
 70
     0
300
3" = 1'-0"
140
3.0
141
12.0
290
     0
  0
SCALE
  5
166A0B99A42C62B
102
{ACAD_REACTORS
330
166A0B99A42C60B
102
}
330
166A0B99A42C60B
100
AcDbScale
 70
     0
300
6" = 1'-0"
140
6.0
141
12.0
290
     0
  0
SCALE
  5
166A0B99A42C62C
102
{ACAD_REACTORS
330
166A0B99A42C60B
102
}
330
166A0B99A42C60B
100
AcDbScale
 70
     0
300
1'-0" = 1'-0"
140
12.0
141
12.0
290
     0
  0
TABLESTYLE
  5
166A0B99A429E9C
102
{ACAD_XDICTIONARY
360
166A0B99A42C6B6
102
}
102
{ACAD_REACTORS
330
166A0B99A429E9B
102
}
330
166A0B99A429E9B
100
AcDbTableStyle
  3
Standard
 70
     0
 71
     0
 40
0.06
 41
0.06
280
     0
281
     0
  7
STANDARD
140
0.18
170
     2
 62
     0
 63
     7
283
     0
274
    -2
284
     1
 64
     0
275
    -2
285
     1
 65
     0
276
    -2
286
     1
 66
     0
277
    -2
287
     1
 67
     0
278
    -2
288
     1
 68
     0
279
    -2
289
     1
 69
     0
  7
STANDARD
140
0.25
170
     5
 62
     0
 63
     7
283
     0
274
    -2
284
     1
 64
     0
275
    -2
285
     1
 65
     0
276
    -2
286
     1
 66
     0
277
    -2
287
     1
 67
     0
278
    -2
288
     1
 68
     0
279
    -2
289
     1
 69
     0
  7
STANDARD
140
0.18
170
     5
 62
     0
 63
     7
283
     0
274
    -2
284
     1
 64
     0
275
    -2
285
     1
 65
     0
276
    -2
286
     1
 66
     0
277
    -2
287
     1
 67
     0
278
    -2
288
     1
 68
     0
279
    -2
289
     1
 69
     0
  0
VISUALSTYLE
  5
166A0B99A429E8F
102
{ACAD_REACTORS
330
166A0B99A429E89
102
}
330
166A0B99A429E89
100
AcDbVisualStyle
  2
2dWireframe
 70
     4
 71
     0
 72
     2
 73
     0
 90
        0
 40
-0.6
 41
-30.0
 62
     5
 63
     7
 74
     1
 91
        4
 64
     7
 65
   257
 75
     1
175
     1
 42
1.0
 92
        0
 66
   257
 43
1.0
 76
     1
 77
     6
 78
     2
 67
     7
 79
     5
170
     0
171
     0
290
     0
174
     0
 93
        1
 44
0.0
173
     0
291
     0
 45
0.0
1001
ACAD
1000
AcDbSavedByObjectVersion
1070
     0
1000
AcDbSavedByObjectVersion
1070
     0
1000
AcDbSavedByObjectVersion
1070
     0
  0
VISUALSTYLE
  5
166A0B99A429E91
102
{ACAD_REACTORS
330
166A0B99A429E89
102
}
330
166A0B99A429E89
100
AcDbVisualStyle
  2
3D Hidden
 70
     6
 71
     1
 72
     2
 73
     2
 90
        0
 40
-0.6
 41
-30.0
 62
     5
 63
     7
 74
     2
 91
        2
 64
     7
 65
   257
 75
     2
175
     1
 42
40.0
 92
        0
 66
   257
 43
1.0
 76
     1
 77
     6
 78
     2
 67
     7
 79
     3
170
     0
171
     0
290
     0
174
     0
 93
        1
 44
0.0
173
     0
291
     0
 45
0.0
1001
ACAD
1000
AcDbSavedByObjectVersion
1070
     0
1000
AcDbSavedByObjectVersion
1070
     0
1000
AcDbSavedByObjectVersion
1070
     0
  0
VISUALSTYLE
  5
166A0B99A429E90
102
{ACAD_REACTORS
330
166A0B99A429E89
102
}
330
166A0B99A429E89
100
AcDbVisualStyle
  2
3dWireframe
 70
     5
 71
     0
 72
     2
 73
     0
 90
        0
 40
-0.6
 41
-30.0
 62
     5
 63
     7
 74
     1
 91
        4
 64
     7
 65
   257
 75
     1
175
     1
 42
1.0
 92
        0
 66
   257
 43
1.0
 76
     1
 77
     6
 78
     2
 67
     7
 79
     5
170
     0
171
     0
290
     0
174
     0
 93
        1
 44
0.0
173
     0
291
     0
 45
0.0
1001
ACAD
1000
AcDbSavedByObjectVersion
1070
     0
1000
AcDbSavedByObjectVersion
1070
     0
1000
AcDbSavedByObjectVersion
1070
     0
  0
VISUALSTYLE
  5
166A0B99A429E8E
102
{ACAD_REACTORS
330
166A0B99A429E89
102
}
330
166A0B99A429E89
100
AcDbVisualStyle
  2
Basic
 70
     7
 71
     1
 72
     0
 73
     1
 90
        0
 40
-0.6
 41
-30.0
 62
     5
 63
     7
 74
     0
 91
        4
 64
     7
 65
   257
 75
     1
175
     1
 42
1.0
 92
        8
 66
     7
 43
1.0
 76
     1
 77
     6
 78
     2
 67
     7
 79
     5
170
     0
171
     0
290
     0
174
     0
 93
        1
 44
0.0
173
     0
291
     1
 45
0.0
1001
ACAD
1000
AcDbSavedByObjectVersion
1070
     0
1000
AcDbSavedByObjectVersion
1070
     0
1000
AcDbSavedByObjectVersion
1070
     0
  0
VISUALSTYLE
  5
166A0B99A429E95
102
{ACAD_REACTORS
330
166A0B99A429E89
102
}
330
166A0B99A429E89
100
AcDbVisualStyle
  2
Brighten
 70
    12
 71
     2
 72
     2
 73
     0
 90
        0
 40
-0.6
 41
-30.0
 62
     5
 63
     7
 74
     1
 91
        4
 64
     7
 65
   257
 75
     1
175
     1
 42
1.0
 92
        8
 66
     7
 43
1.0
 76
     1
 77
     6
 78
     2
 67
     7
 79
     5
170
     0
171
     0
290
     0
174
     0
 93
        1
 44
50.0
173
     0
291
     1
 45
0.0
1001
ACAD
1000
AcDbSavedByObjectVersion
1070
     0
1000
AcDbSavedByObjectVersion
1070
     0
1000
AcDbSavedByObjectVersion
1070
     0
  0
VISUALSTYLE
  5
166A0B99A429E99
102
{ACAD_REACTORS
330
166A0B99A429E89
102
}
330
166A0B99A429E89
100
AcDbVisualStyle
  2
ColorChange
 70
    16
 71
     2
 72
     2
 73
     3
 90
        0
 40
-0.6
 41
-30.0
 62
     5
 63
     8
 74
     1
 91
        4
 64
     7
 65
   257
 75
     1
175
     1
 42
1.0
 92
        8
 66
     8
 43
1.0
 76
     1
 77
     6
 78
     2
 67
     7
 79
     5
170
     0
171
     0
290
     0
174
     0
 93
        1
 44
0.0
173
     0
291
     1
 45
0.0
1001
ACAD
1000
AcDbSavedByObjectVersion
1070
     0
1000
AcDbSavedByObjectVersion
1070
     0
1000
AcDbSavedByObjectVersion
1070
     0
  0
VISUALSTYLE
  5
166A0B99A429E92
102
{ACAD_REACTORS
330
166A0B99A429E89
102
}
330
166A0B99A429E89
100
AcDbVisualStyle
  2
Conceptual
 70
     9
 71
     3
 72
     2
 73
     0
 90
        0
 40
-0.6
 41
-30.0
 62
     5
 63
     7
 74
     2
 91
        2
 64
     7
 65
   257
 75
     1
175
     1
 42
40.0
 92
        8
 66
     7
 43
1.0
 76
     1
 77
     6
 78
     2
 67
     7
 79
     3
170
     0
171
     0
290
     0
174
     0
 93
        1
 44
0.0
173
     0
291
     0
 45
0.0
1001
ACAD
1000
AcDbSavedByObjectVersion
1070
     0
1000
AcDbSavedByObjectVersion
1070
     0
1000
AcDbSavedByObjectVersion
1070
     0
  0
VISUALSTYLE
  5
166A0B99A429E94
102
{ACAD_REACTORS
330
166A0B99A429E89
102
}
330
166A0B99A429E89
100
AcDbVisualStyle
  2
Dim
 70
    11
 71
     2
 72
     2
 73
     0
 90
        0
 40
-0.6
 41
-30.0
 62
     5
 63
     7
 74
     1
 91
        4
 64
     7
 65
   257
 75
     1
175
     1
 42
1.0
 92
        8
 66
     7
 43
1.0
 76
     1
 77
     6
 78
     2
 67
     7
 79
     5
170
     0
171
     0
290
     0
174
     0
 93
        1
 44
-50.0
173
     0
291
     1
 45
0.0
1001
ACAD
1000
AcDbSavedByObjectVersion
1070
     0
1000
AcDbSavedByObjectVersion
1070
     0
1000
AcDbSavedByObjectVersion
1070
     0
  0
VISUALSTYLE
  5
166A0B99A429E98
102
{ACAD_REACTORS
330
166A0B99A429E89
102
}
330
166A0B99A429E89
100
AcDbVisualStyle
  2
Facepattern
 70
    15
 71
     2
 72
     2
 73
     0
 90
        0
 40
-0.6
 41
-30.0
 62
     5
 63
     7
 74
     1
 91
        4
 64
     7
 65
   257
 75
     1
175
     1
 42
1.0
 92
        8
 66
     7
 43
1.0
 76
     1
 77
     6
 78
     2
 67
     7
 79
     5
170
     0
171
     0
290
     0
174
     0
 93
        1
 44
0.0
173
     0
291
     1
 45
0.0
1001
ACAD
1000
AcDbSavedByObjectVersion
1070
     0
1000
AcDbSavedByObjectVersion
1070
     0
1000
AcDbSavedByObjectVersion
1070
     0
  0
VISUALSTYLE
  5
166A0B99A429E8A
102
{ACAD_REACTORS
330
166A0B99A429E89
102
}
330
166A0B99A429E89
100
AcDbVisualStyle
  2
Flat
 70
     0
 71
     2
 72
     1
 73
     1
 90
        2
 40
-0.6
 41
30.0
 62
     5
 63
     7
 74
     0
 91
        4
 64
     7
 65
   257
 75
     1
175
     1
 42
1.0
 92
        8
 66
     7
 43
1.0
 76
     1
 77
     6
 78
     2
 67
     7
 79
     5
170
     0
171
     0
290
     0
174
     0
 93
       13
 44
0.0
173
     0
291
     1
 45
0.0
1001
ACAD
1000
AcDbSavedByObjectVersion
1070
     0
1000
AcDbSavedByObjectVersion
1070
     0
1000
AcDbSavedByObjectVersion
1070
     0
  0
VISUALSTYLE
  5
166A0B99A429E8B
102
{ACAD_REACTORS
330
166A0B99A429E89
102
}
330
166A0B99A429E89
100
AcDbVisualStyle
  2
FlatWithEdges
 70
     1
 71
     2
 72
     1
 73
     1
 90
        2
 40
-0.6
 41
30.0
 62
     5
 63
     7
 74
     1
 91
        4
 64
     7
 65
   257
 75
     1
175
     1
 42
1.0
 92
        0
 66
   257
 43
1.0
 76
     1
 77
     6
 78
     2
 67
     7
 79
     5
170
     0
171
     0
290
     0
174
     0
 93
       13
 44
0.0
173
     0
291
     1
 45
0.0
1001
ACAD
1000
AcDbSavedByObjectVersion
1070
     0
1000
AcDbSavedByObjectVersion
1070
     0
1000
AcDbSavedByObjectVersion
1070
     0
  0
VISUALSTYLE
  5
166A0B99A429E8C
102
{ACAD_REACTORS
330
166A0B99A429E89
102
}
330
166A0B99A429E89
100
AcDbVisualStyle
  2
Gouraud
 70
     2
 71
     2
 72
     2
 73
     1
 90
        2
 40
-0.6
 41
30.0
 62
     5
 63
     7
 74
     0
 91
        4
 64
     7
 65
   257
 75
     1
175
     1
 42
1.0
 92
        0
 66
     7
 43
1.0
 76
     1
 77
     6
 78
     2
 67
     7
 79
     5
170
     0
171
     0
290
     0
174
     0
 93
       13
 44
0.0
173
     0
291
     1
 45
0.0
1001
ACAD
1000
AcDbSavedByObjectVersion
1070
     0
1000
AcDbSavedByObjectVersion
1070
     0
1000
AcDbSavedByObjectVersion
1070
     0
  0
VISUALSTYLE
  5
166A0B99A429E8D
102
{ACAD_REACTORS
330
166A0B99A429E89
102
}
330
166A0B99A429E89
100
AcDbVisualStyle
  2
GouraudWithEdges
 70
     3
 71
     2
 72
     2
 73
     1
 90
        2
 40
-0.6
 41
30.0
 62
     5
 63
     7
 74
     1
 91
        4
 64
     7
 65
   257
 75
     1
175
     1
 42
1.0
 92
        0
 66
   257
 43
1.0
 76
     1
 77
     6
 78
     2
 67
     7
 79
     5
170
     0
171
     0
290
     0
174
     0
 93
       13
 44
0.0
173
     0
291
     1
 45
0.0
1001
ACAD
1000
AcDbSavedByObjectVersion
1070
     0
1000
AcDbSavedByObjectVersion
1070
     0
1000
AcDbSavedByObjectVersion
1070
     0
  0
VISUALSTYLE
  5
166A0B99A429E97
102
{ACAD_REACTORS
330
166A0B99A429E89
102
}
330
166A0B99A429E89
100
AcDbVisualStyle
  2
Linepattern
 70
    14
 71
     2
 72
     2
 73
     0
 90
        0
 40
-0.6
 41
-30.0
 62
     5
 63
     7
 74
     1
 91
        4
 64
     7
 65
   257
 75
     7
175
     7
 42
1.0
 92
        8
 66
     7
 43
1.0
 76
     1
 77
     6
 78
     2
 67
     7
 79
     5
170
     0
171
     0
290
     0
174
     0
 93
        1
 44
0.0
173
     0
291
     1
 45
0.0
1001
ACAD
1000
AcDbSavedByObjectVersion
1070
     0
1000
AcDbSavedByObjectVersion
1070
     0
1000
AcDbSavedByObjectVersion
1070
     0
  0
VISUALSTYLE
  5
166A0B99A429E93
102
{ACAD_REACTORS
330
166A0B99A429E89
102
}
330
166A0B99A429E89
100
AcDbVisualStyle
  2
Realistic
 70
     8
 71
     2
 72
     2
 73
     0
 90
        0
 40
-0.6
 41
-30.0
 62
     5
 63
     7
 74
     1
 91
        0
 64
     7
 65
   257
 75
     1
175
     1
 42
1.0
 92
        8
 66
     8
 43
1.0
 76
     1
 77
     6
 78
     2
 67
     7
 79
     5
170
     0
171
     0
290
     0
174
     0
 93
       13
 44
0.0
173
     0
291
     0
 45
0.0
1001
ACAD
1000
AcDbSavedByObjectVersion
1070
     0
1000
AcDbSavedByObjectVersion
1070
     0
1000
AcDbSavedByObjectVersion
1070
     0
  0
VISUALSTYLE
  5
166A0B99A429E96
102
{ACAD_REACTORS
330
166A0B99A429E89
102
}
330
166A0B99A429E89
100
AcDbVisualStyle
  2
Thicken
 70
    13
 71
     2
 72
     2
 73
     0
 90
        0
 40
-0.6
 41
-30.0
 62
     5
 63
     7
 74
     1
 91
        4
 64
     7
 65
   257
 75
     1
175
     1
 42
1.0
 92
       12
 66
     7
 43
1.0
 76
     1
 77
     6
 78
     2
 67
     7
 79
     5
170
     0
171
     0
290
     0
174
     0
 93
        1
 44
0.0
173
     0
291
     1
 45
0.0
1001
ACAD
1000
AcDbSavedByObjectVersion
1070
     0
1000
AcDbSavedByObjectVersion
1070
     0
1000
AcDbSavedByObjectVersion
1070
     0
  0
DICTIONARYVAR
  5
166A0B99A42C6B5
102
{ACAD_REACTORS
330
166A0B99A429E7D
102
}
330
166A0B99A429E7D
100
DictionaryVariables
280
     0
  1
1:1
  0
DICTIONARYVAR
  5
166A0B99A42C6B4
102
{ACAD_REACTORS
330
166A0B99A429E7D
102
}
330
166A0B99A429E7D
100
DictionaryVariables
280
     0
  1
STANDARD
  0
DICTIONARYVAR
  5
166A0B99A42A267
102
{ACAD_REACTORS
330
166A0B99A429E7D
102
}
330
166A0B99A429E7D
100
DictionaryVariables
280
     0
  1
STANDARD
  0
DICTIONARYVAR
  5
166A0B99A429E7F
102
{ACAD_REACTORS
330
166A0B99A429E7D
102
}
330
166A0B99A429E7D
100
DictionaryVariables
280
     0
  1
2
  0
DICTIONARYVAR
  5
166A0B99A429E7E
102
{ACAD_REACTORS
330
166A0B99A429E7D
102
}
330
166A0B99A429E7D
100
DictionaryVariables
280
     0
  1
1
  0
DICTIONARYVAR
  5
166A0B99A42C5C4
102
{ACAD_REACTORS
330
166A0B99A429E7D
102
}
330
166A0B99A429E7D
100
DictionaryVariables
280
     0
  1
0
  0
DICTIONARYVAR
  5
166A0B99A42C5C3
102
{ACAD_REACTORS
330
166A0B99A429E7D
102
}
330
166A0B99A429E7D
100
DictionaryVariables
280
     0
  1
127
  0
XRECORD
  5
166A0B99A42A5AE
102
{ACAD_REACTORS
330
166A0B99A42A5AD
102
}
330
166A0B99A42A5AD
100
AcDbXrecord
280
     1
330
FD790
330
166A0B99A422409
330
166A0B99A42240A
330
166A0B99A42240B
330
166A0B99A4244F3
330
166A0B99A424974
330
166A0B99A424975
330
166A0B99A424976
330
166A0B99A4249B9
330
166A0B99A4249DC
330
166A0B99A4249DD
330
166A0B99A424A71
330
166A0B99A424F50
330
0
330
2229
330
DE67E
  0
XRECORD
  5
166A0B99A429EC5
102
{ACAD_REACTORS
330
166A0B99A429EC4
102
}
330
166A0B99A429EC4
100
AcDbXrecord
280
     1
 70
     1
  0
XRECORD
  5
166A0B99A429EC8
102
{ACAD_REACTORS
330
166A0B99A429EC4
102
}
330
166A0B99A429EC4
100
AcDbXrecord
280
     1
 70
     1
  1

 70
     0
  1

 70
     0
  1

 70
     0
  1

 70
     0
  1

 70
     0
  1

 70
     0
  1

 70
     0
  1

 70
     0
  1

 70
     0
  1

 70
     0
  1

 70
     0
  1

 70
     0
  1

 70
     0
  1

 70
     0
  1

 70
     0
  1

 70
     0
  1

 70
     0
  1

 70
     0
  1

 70
     0
  1

 70
     0
  1

 70
     0
  1

 70
     0
  1

 70
     0
  1

 70
     0
  1

 70
     0
  1

 70
     0
  1

 70
     0
  1

 70
     0
  1

 70
     0
  1

 70
     0
  1

 70
     0
  1

 70
     0
  1

 70
     0
  1

 70
     0
  1

 70
     0
  1

 70
     0
  1

 70
     0
  1

 70
     0
  1

 70
     0
  1

 70
     0
  1

 70
     0
  1

 70
     0
  1

 70
     0
  1

 70
     0
  1

 70
     0
  1

 70
     0
  1

 70
     0
  1

 70
     0
  1

 70
     0
  1

 70
     0
  1

 70
     0
  1

 70
     0
  1

 70
     0
  1

 70
     0
  1

 70
     0
  1

 70
     0
  1

 70
     0
  1

 70
     0
  1

 70
     0
  1

 70
     0
  1

 70
     0
  1

 70
     0
  1

 70
     0
  1

 70
     0
  1

 70
     0
  1

 70
     0
  1

 70
     0
  1

 70
     0
  1

 70
     0
  1

 70
     0
  1

 70
     0
  1

 70
     0
  1

 70
     0
  1

 70
     0
  1

 70
     0
  1

 70
     0
  1

 70
     0
  1

 70
     0
  1

 70
     0
  1

 70
     0
  1

 70
     0
  1

 70
     0
  1

 70
     0
  1

 70
     0
  1

 70
     0
  1

 70
     0
  1

 70
     0
  1

 70
     0
  1

 70
     0
  1

 70
     0
  1

 70
     0
  1

 70
     0
  1

 70
     0
  1

 70
     0
  1

 70
     0
  1

 70
     0
  1

 70
     0
  1

 70
     0
  1

 70
     0
  1

 70
     0
  1

 70
     0
  1

 70
     0
  1

 70
     0
  1

 70
     0
  1

 70
     0
  1

 70
     0
  1

 70
     0
  1

 70
     0
  1

 70
     0
  1

 70
     0
  1

 70
     0
  1

 70
     0
  1

 70
     0
  1

 70
     0
  1

 70
     0
  1

 70
     0
  1

 70
     0
  1

 70
     0
  1

 70
     0
  1

 70
     0
  1

 70
     0
  1

 70
     0
  1

 70
     0
  1

 70
     0
  1

 70
     0
  1

 70
     0
  1

 70
     0
  1

 70
     0
  0
XRECORD
  5
166A0B99A429EC7
102
{ACAD_REACTORS
330
166A0B99A429EC4
102
}
330
166A0B99A429EC4
100
AcDbXrecord
280
     1
 70
     1
  1

 70
     0
  1

 70
     0
  1

 70
     0
  1

 70
     0
  1

 70
     0
  1

 70
     0
  1

 70
     0
  1

 70
     0
  1

 70
     0
  1

 70
     0
  1

 70
     0
  1

 70
     0
  1

 70
     0
  1

 70
     0
  1

 70
     0
  1

 70
     0
  1

 70
     0
  1

 70
     0
  1

 70
     0
  1

 70
     0
  1

 70
     0
  1

 70
     0
  1

 70
     0
  1

 70
     0
  1

 70
     0
  1

 70
     0
  1

 70
     0
  1

 70
     0
  1

 70
     0
  1

 70
     0
  1

 70
     0
  1

 70
     0
  1

 70
     0
  1

 70
     0
  1

 70
     0
  1

 70
     0
  1

 70
     0
  1

 70
     0
  1

 70
     0
  1

 70
     0
  1

 70
     0
  1

 70
     0
  1

 70
     0
  1

 70
     0
  1

 70
     0
  1

 70
     0
  1

 70
     0
  1

 70
     0
  1

 70
     0
  1

 70
     0
  1

 70
     0
  1

 70
     0
  1

 70
     0
  1

 70
     0
  1

 70
     0
  1

 70
     0
  1

 70
     0
  1

 70
     0
  1

 70
     0
  1

 70
     0
  1

 70
     0
  1

 70
     0
  1

 70
     0
  1

 70
     0
  1

 70
     0
  1

 70
     0
  1

 70
     0
  1

 70
     0
  1

 70
     0
  1

 70
     0
  1

 70
     0
  1

 70
     0
  1

 70
     0
  1

 70
     0
  1

 70
     0
  1

 70
     0
  1

 70
     0
  1

 70
     0
  1

 70
     0
  1

 70
     0
  1

 70
     0
  1

 70
     0
  1

 70
     0
  1

 70
     0
  1

 70
     0
  1

 70
     0
  1

 70
     0
  1

 70
     0
  1

 70
     0
  1

 70
     0
  1

 70
     0
  1

 70
     0
  1

 70
     0
  1

 70
     0
  1

 70
     0
  1

 70
     0
  1

 70
     0
  1

 70
     0
  1

 70
     0
  1

 70
     0
  1

 70
     0
  1

 70
     0
  1

 70
     0
  1

 70
     0
  1

 70
     0
  1

 70
     0
  1

 70
     0
  1

 70
     0
  1

 70
     0
  1

 70
     0
  1

 70
     0
  1

 70
     0
  1

 70
     0
  1

 70
     0
  1

 70
     0
  1

 70
     0
  1

 70
     0
  1

 70
     0
  1

 70
     0
  1

 70
     0
  1

 70
     0
  1

 70
     0
  1

 70
     0
  1

 70
     0
  1

 70
     0
  1

 70
     0
  1

 70
     0
  1

 70
     0
  0
XRECORD
  5
166A0B99A42A1F7
102
{ACAD_REACTORS
330
166A0B99A429EC4
102
}
330
166A0B99A429EC4
100
AcDbXrecord
280
     1
 90
294128656
 90
     3871
 90
     1092
 90
       52
 90
        3
 90
      256
  1

  1

  1

  1

140
0.0
140
0.0
140
0.0
140
0.0
 70
    31
 70
     9
 70
    23
 70
    63
 70
    31
 70
     1
 70
     1
 70
     2
 70
     2
 70
     3
 70
     2
 70
     1
 70
     1
 70
     1
 70
     1
 70
     0
 70
     0
 70
     0
 70
     1
140
0.000001
140
50.0
 70
     2
140
1.0
140
1.0
140
1.0
140
100.0
140
50.0
140
0.0
 70
     8
 70
   210
 70
     1
 70
     1
140
500.0
140
20.0
 70
     5
 70
     2
 70
     1
 70
     4
 70
     3
 70
     2
 70
     2
 70
     3
 70
     2
 70
    80
 70
     1
140
5.0
140
1.0
 70
     1
 70
     0
 70
     0
140
5.0
140
1.0
 70
     1
 70
     0
 70
     0
 70
     0
 70
     0
140
25.0
  1

  1
$(N) $(L)x$(W)x$(T)
 70
     1
 70
     0
  1
$(N) $(T)x$(W)
 70
     1
 70
     0
140
2.0
  1
$(N) $(T)x$(W)
 70
     0
 70
     0
 70
     0
 70
     0
 70
     0
 70
     5
 70
     1
 70
     7
 70
     2
 70
     0
 70
     1
 70
     0
 70
     0
 70
     1
 70
     1
 70
     4
 70
     7
 70
     1
 70
     1
 70
     2
 70
     8
 70
     2
 70
     1
 70
     7
 70
     0
 70
     0
140
10.0
140
0.0
140
10.0
140
0.2
140
0.0
140
0.0
140
1.0
140
500.0
140
0.0
140
0.0
  1
Rd $(D)
  1
RO $(D)x$(T)
  1
RQ $(D)x$(T)
  1
RR $(W)x$(H)x$(T)
  1
4KT $(D)
  1
Blech $(W)x$(H)
 70
     0
 70
    -1
 70
    -1
 70
    -1
 70
     0
 70
     0
 70
     0
 70
     0
 70
     0
 70
     0
 70
     0
 70
     0
 70
     0
 70
     0
 70
     0
 70
     0
 70
     0
 70
     0
 70
     0
 70
     0
 70
     0
 70
     0
 70
     0
 70
     0
 70
     0
 70
     0
 70
     0
 70
     0
 70
     0
 70
     0
 70
     0
 70
     0
 70
     0
 70
     0
 70
     0
 70
     0
 70
     4
 70
     1
 70
   100
 70
  2000
 70
     0
 70
   253
 70
   253
 70
   253
 90
        4
 70
     1
 70
     1
 70
     1
 70
     0
 70
     0
 90
        0
140
3.149999999999999
140
1.0
140
1.0
 70
     1
 70
     0
 70
     0
 70
     1
 70
     2
  0
XRECORD
  5
166A0B99A429EA1
102
{ACAD_REACTORS
330
166A0B99A429EA0
102
}
330
166A0B99A429EA0
100
AcDbXrecord
280
     1
  1
17.00.5205
  1
3:3:2008 by PS 17.2
  0
DICTIONARY
  5
166A0B99A42C5F2
330
166A0B99A42C5E5
100
AcDbDictionary
280
     1
281
     1
  3
ACAD_XREC_ROUNDTRIP
360
166A0B99A42C6BD
  3
ADSK_XREC_LAYOUTTHUMBNAIL
360
166A0B99A42C5F3
  0
DICTIONARY
  5
166A0B99A42C6BA
330
166A0B99A429BB6
100
AcDbDictionary
280
     1
281
     1
  3
ACAD_XREC_ROUNDTRIP
360
166A0B99A42C6BB
  0
DICTIONARY
  5
166A0B99A42C5CA
330
166A0B99A429E87
100
AcDbDictionary
280
     1
281
     1
  3
ACAD_XREC_ROUNDTRIP
360
166A0B99A42C5CB
  0
DICTIONARY
  5
166A0B99A42C5C8
330
166A0B99A429E86
100
AcDbDictionary
280
     1
281
     1
  3
ACAD_XREC_ROUNDTRIP
360
166A0B99A42C5C9
  0
DICTIONARY
  5
166A0B99A42C5CC
330
166A0B99A429E88
100
AcDbDictionary
280
     1
281
     1
  3
ACAD_XREC_ROUNDTRIP
360
166A0B99A42C5CD
  0
DICTIONARY
  5
166A0B99A42C6B6
330
166A0B99A429E9C
100
AcDbDictionary
280
     1
281
     1
  3
ACAD_ROUNDTRIP_2008_TABLESTYLE_CELLSTYLEMAP
360
166A0B99A42C6B7
  3
ACAD_XREC_ROUNDTRIP
360
166A0B99A42C6BC
  0
XRECORD
  5
166A0B99A42C6BD
102
{ACAD_REACTORS
330
166A0B99A42C5F2
102
}
330
166A0B99A42C5F2
100
AcDbXrecord
280
     1
102
SHADEPLOT
 70
     0
102
SHADEPLOTRESLEVEL
 70
     2
102
SHADEPLOTCUSTOMDPI
 70
   300
  0
XRECORD
  5
166A0B99A42C5F3
102
{ACAD_REACTORS
330
166A0B99A42C5F2
102
}
330
166A0B99A42C5F2
100
AcDbXrecord
280
     1
310
28000000B40000007F00000001000800000000004C590000000000000000000000010000000000000000000000000000FFFFFF000000000000000000000000000000000000000000000000000000000000000000330000006600000099000000CC000000FF00000000330000333300006633000099330000CC330000FF3300
310
0000660000336600006666000099660000CC660000FF66000000990000339900006699000099990000CC990000FF99000000CC000033CC000066CC000099CC0000CCCC0000FFCC000000FF000033FF000066FF000099FF0000CCFF0000FFFF000000003300330033006600330099003300CC003300FF003300003333003333
310
33006633330099333300CC333300FF33330000663300336633006666330099663300CC663300FF66330000993300339933006699330099993300CC993300FF99330000CC330033CC330066CC330099CC3300CCCC3300FFCC330000FF330033FF330066FF330099FF3300CCFF3300FFFF330000006600330066006600660099
310
006600CC006600FF00660000336600333366006633660099336600CC336600FF33660000666600336666006666660099666600CC666600FF66660000996600339966006699660099996600CC996600FF99660000CC660033CC660066CC660099CC6600CCCC6600FFCC660000FF660033FF660066FF660099FF6600CCFF6600
310
FFFF660000009900330099006600990099009900CC009900FF00990000339900333399006633990099339900CC339900FF33990000669900336699006666990099669900CC669900FF66990000999900339999006699990099999900CC999900FF99990000CC990033CC990066CC990099CC9900CCCC9900FFCC990000FF99
310
0033FF990066FF990099FF9900CCFF9900FFFF99000000CC003300CC006600CC009900CC00CC00CC00FF00CC000033CC003333CC006633CC009933CC00CC33CC00FF33CC000066CC003366CC006666CC009966CC00CC66CC00FF66CC000099CC003399CC006699CC009999CC00CC99CC00FF99CC0000CCCC0033CCCC0066CC
310
CC0099CCCC00CCCCCC00FFCCCC0000FFCC0033FFCC0066FFCC0099FFCC00CCFFCC00FFFFCC000000FF003300FF006600FF009900FF00CC00FF00FF00FF000033FF003333FF006633FF009933FF00CC33FF00FF33FF000066FF003366FF006666FF009966FF00CC66FF00FF66FF000099FF003399FF006699FF009999FF00CC
310
99FF00FF99FF0000CCFF0033CCFF0066CCFF0099CCFF00CCCCFF00FFCCFF0000FFFF0033FFFF0066FFFF0099FFFF00CCFFFF00FFFFFF00000000000D0D0D001A1A1A00282828003535350043434300505050005D5D5D006B6B6B00787878008686860093939300A1A1A100AEAEAE00BBBBBB00C9C9C900D6D6D600E4E4E400
310
F1F1F100FFFFFF0000000000000000000000000000000000000000000000000000000000000000000000000000000000F5F5F5F5F5F5F5F5F5F5F5F5F5F5F5F5F5F5F5F5F5F5F5F5F5F5F5F5F5F5F5F5F5F5F5F5F5F5F5F5F5F5F5F5F5F5F5F5F5F5F5F5F5F5F5F5F5F5F5F5F5F5F5F5F5F5F5F5F5F5F5F5F5F5F5F5F5F5F5
310
F5F5F5F5F5F5F5F5F5F5F5F5F5F5F5F5F5F5F5F5F5F5F5F5F5F5F5F5F5F5F5F5F5F5F5F5F5F5F5F5F5F5F5F5F5F5F5F5F5F5F5F5F5F5F5F5F5F5F5F5F5F5F5F5F5F5F5F5F5F5F5F5F5F5F5F5F5F5F5F5F5F5F5F5F5F5F5F5F5F5F5F5F5F5F5F5F5F5F5F5F5F5E2E2E2E2E2E2E2E2E2E2E2E2E2E2E2E2E2E2E2E2E2E2E2E2E2
310
E2E2E2E2E2E2E2E2E2E2E2E2E2E2E2E2E2E2E2E2E2E2E2E2E2E2E2E2E2E2E2E2E2E2E2E2E2E2E2E2E2E2E2E2E2E2E2E2E2E2E2E2E2E2E2E2E2E2E2E2E2E2E2E2E2E2E2E2E2E2E2E2E2E2E2E2E2E2E2E2E2E2E2E2E2E2E2E2E2E2E2E2E2E2E2E2E2E2E2E2E2E2E2E2E2E2E2E2E2E2E2E2E2E2E2E2E2E2E2E2E2E2E2E2E2E2E2
310
E2E2E2E2E2E2E2E2E2E2E2E2E2E2E2E2E2E2E2E2E2E2E2E2E2E2F5F5E2E2E2E2E2E2E2E2E2E2E2E2E2E2E2E2E2E2E2E2E2E2E2E2E2E2E2E2E2E2E2E2E2E2E2E2E2E2E2E2E2E2E2E2E2E2E2E2E2E2E2E2E2E2E2E2E2E2E2E2E2E2E2E2E2E2E2E2E2E2E2E2E2E2E2E2E2E2E2E2E2E2E2E2E2E2E2E2E2E2E2E2E2E2E2E2E2E2E2
310
E2E2E2E2E2E2E2E2E2E2E2E2E2E2E2E2E2E2E2E2E2E2E2E2E2E2E2E2E2E2E2E2E2E2E2E2E2E2E2E2E2E2E2E2E2E2E2E2E2E2E2E2E2E2E2E2E2E2E2E2E2E2E2E2E2E2E2E2E2E2E2E2E2E2E2E2E2E2E2F5F5E2E2F5F5F5F5F5F5F5F5E2E2E2E2E2E2E2E2E2F5F5F5F5F5F5F5F5F5F5F5F5F5F5F5F5E2E2E2E2E2E2E2E2E2F5F5
310
F5F5F5F5F5F5F5F5F5F5F5F5F5F5E2E2E2E2E2E2E2E2E2F5F5F5F5F5F5F5F5F5F5F5F5F5F5F5F5E2E2E2E2E2E2E2E2F5F5F5F5F5F5F5F5F5F5F5F5F5F5F5F5E2E2E2E2E2E2E2E2E2F5F5F5F5F5F5F5F5F5F5F5F5F5F5F5F5E2E2E2E2E2E2E2E2E2F5F5F5F5F5F5F5F5F5F5F5F5F5F5F5F5E2E2E2E2E2E2E2E2E2F5F5F5F5F5
310
F5F5F5E2E2F5F5E2E2F5E2E2E2E2E2E2E2E2E2E2E2E2E2E2E2E2E2E2E2E2E2E2E2E2E2E2E2E2E2E2E2E2E2E2E2E2E2E2E2E2E2E2E2E2E2E2E2E2E2E2E2E2E2E2E2E2E2E2E2E2E2E2E2E2E2E2E2E2E2E2E2E2E2E2E2E2E2E2E2E2E2E2E2E2E2E2E2E2E2E2E2E2E2E2E2E2E2E2E2E2E2E2E2E2E2E2E2E2E2E2E2E2E2E2E2E2E2
310
E2E2E2E2E2E2E2E2E2E2E2E2E2E2E2E2E2E2E2E2E2E2E2E2E2E2E2E2E2E2E2E2E2E2E2E2E2E2E2E2E2E2E2E2E2E2E2E2E2E2E2E2E2E2E2F5E2E2F5F5E2E2F5E2E2E2E2E2E2E2E2E2E2E2E2E2E2E2E2E2E2E2E2E2E2E2E2E2E2E2E2E2E2E2E2E2E2E2E2E2E2E2E2E2E2E2E2E2E2E2E2E2E2E2E2E2E2E2E2E2E2E2E2E2E2E2E2
310
E2E2E2E2E2E2E2E2E2E2E2E2E2E2E2E2E2E2E2E2E2E2E2E2E2E2E2E2E2E2E2E2E2E2E2E2E2E2E2E2E2E2E2E2E2E2E2E2E2E2E2E2E2E2E2E2E2E2E2E2E2E2E2E2E2E2E2E2E2E2E2E2E2E2E2E2E2E2E2E2E2E2E2E2E2E2E2E2E2E2E2E2E2E2E2E2E2E2E2E2E2E2E2E2E2E2E2E2F5E2E2F5F5E2E2F5E2E2E2E2E2E2E2E2E2E2E2
310
E2E2E2E2E2E2E2E2E2E2E2E2E2E2E2E2E2E2E2E2E2E2E2E2E2E2E2E2E2E2E2E2E2E2E2E2E2E2E2E2E2E2E2E2E2E2E2E2E2E2E2E2E2E2E2E2E2E2E2E2E2E2E2E2E2E2E2E2E2E2E2E2E2E2E2E2E2E2E2E2E2E2E2E2E2E2E2E2E2E2E2E2E2E2E2E2E2E2E2E2E2E2E2E2E2E2E2E2E2E2E2E2E2E2E2E2E2E2E2E2E2E2E2E2E2E2E2
310
E2E2E2E2E2E2E2E2E2E2E2E2E2E2E2E2E2E2E2E2E2E2E2E2E2E2E2E2E2E2E2E2E2E2F5E2E2F5F5E2E2F5E2E2E2E2E2E2E2E2E2E2E2E2E2E2E2E2E2E2E2E2E2E2E2E2E2E2E2E2E2E2E2E2E2E2E2E2E2E2E2E2E2E2E2E2E2E2E2E2E2E2E2E2E2E2E2E2E2E2E2E2E2E2E2E2E2E2E2E2E2E2E2E2E2E2E2E2E2E2E2E2E2E2E2E2E2
310
E2E2E2E2E2E2E2E2E2E2E2E2E2E2E2E2E2E2E2E2E2E2E2E2E2E2E2E2E2E2E2E2E2E2E2E2E2E2E2E2E2E2E2E2E2E2E2E2E2E2E2E2E2E2E2E2E2E2E2E2E2E2E2E2E2E2E2E2E2E2E2E2E2E2E2E2E2E2E2E2E2E2E2E2E2E2E2F5E2E2F5F5E2E2F5E2E2E2E2E2E2E2E2E2E2E2E2E2E2E2E2E2E2E2E2E2E2E2E2E2E2E2E2E2E2E2E2
310
E2E2E2E2E2E2E2E2E2E2E2E2E2E2E2E2E2E2E2E2E2E2E2E2E2E2E2E2E2E2E2E2E2E2E2E2E2E2E2E2E2E2E2E2E2E2E2E2E2E2E2E2E2E2E2E2E2E2E2E2E2E2E2E2E2E2E2E2E2E2E2E2E2E2E2E2E2E2E2E2E2E2E2E2E2E2E2E2E2E2E2E2E2E2E2E2E2E2E2E2E2E2E2E2E2E2E2E2E2E2E2E2E2E2E2E2E2E2E2E2E2E2E2E2E2E2E2
310
E2E2E2E2E2E2E2E2E2E2E2E2E2F5E2E2F5F5E2E2F5E2E2E2E2E2E2E2E2E2E2E2E2E2E2E2E2E2E2E2E2E2E2E2E2E2E2E2E2E2E2E2E2E2E2E2E2E2E2E2E2E2E2E2E2E2E2E2E2E2E2E2E2E2E2E2E2E2E2E2E2E2E2E2E2E2E2E2E2E2E2E2E2E2E2E2E2E2E2E2E2E2E2E2E2E2E2E2E2E2E2E2E2E2E2E2E2E2E2E2E2E2E2E2E2E2E2
310
E2E2E2E2E2E2E2E2E2E2E2E2E2E2E2E2E2E2E2E2E2E2E2E2E2E2E2E2E2E2E2E2E2E2E2E2E2E2E2E2E2E2E2E2E2E2E2E2E2E2E2E2E2E2E2E2E2E2E2E2E2E2E2E2E2E2F5E2E2F5F5E2E2F5E2E2E2E2E2E2E2E2E2E2E2E2E2E2E2E2E2E2E2E2E2E2E2E2E2E2E2E2E2E2E2E2E2E2E2E2E2E2E2E2E2E2E2E2E2E2E2E2E2E2E2E2E2
310
E2E2E2E2E2E2E2E2E2E2E2E2E2E2E2E2E2E2E2E2E2E2E2E2E2E2E2E2E2E2E2E2E2E2E2E2E2E2E2E2E2E2E2E2E2E2E2E2E2E2E2E2E2E2E2E2E2E2E2E2E2E2E2E2E2E2E2E2E2E2E2E2E2E2E2E2E2E2E2E2E2E2E2E2E2E2E2E2E2E2E2E2E2E2E2E2E2E2E2E2E2E2E2E2E2E2E2E2E2E2E2E2E2E2E2E2E2E2E2F5E2E2F5F5E2E2E2
310
E2E2E2E2E2E2E2E2E2E2E2E2E2E2E2E2E2E2E2E2E2E2E2E2E2E2E2E2E2E2E2E2E2E2E2E2E2E2E2E2E2E2E2E2E2E2E2E2E2E2E2E2E2E2E2E2E2E2E2E2E2E2E2E2E2E2E2E2E2E2E2E2E2E2E2E2E2E2E2E2E2E2E2E2E2E2E2E2E2E2E2E2E2E2E2E2E2E2E2E2E2E2E2E2E2E2E2E2E2E2E2E2E2E2E2E2E2E2E2E2E2E2E2E2E2E2E2
310
E2E2E2E2E2E2E2E2E2E2E2E2E2E2E2E2E2E2E2E2E2E2E2E2E2E2E2E2E2E2E2E2E2E2E2E2E2E2E2E2E2E2E2E2E2E2E2E2F5F5E2E2E2E2E2E2E2E2E2E2E2E2E2E2E2E2E2E2E2E2E2E2E2E2E2E2E2E2E2E2E2E2E2E2E2E2E2E2E2E2E2E2E2E2E2E2E2E2E2E2E2E2E2E2E2E2E2E2E2E2E2E2E2E2E2E2E2E2E2E2E2E2E2E2E2E2E2
310
E2E2E2E2E2E2E2E2E2E2E2E2E2E2E2E2E2E2E2E2E2E2E2E2E2E2E2E2E2E2E2E2E2E2E2E2E2E2E2E2E2E2E2E2E2E2E2E2E2E2E2E2E2E2E2E2E2E2E2E2E2E2E2E2E2E2E2E2E2E2E2E2E2E2E2E2E2E2E2E2E2E2E2E2E2E2E2E2E2E2E2E2E2E2E2E2E2E2E2E2E2F5F5E2E2E2E2E2E2E2E2E2E2E2E2E2E2E2E2E2E2E2E2E2E2E2E2
310
E2E2E2E2E2E2E2E2E2E2E2E2E2E2E2E2E2E2E2E2E2E2E2E2E2E2E2E2E2E2E2E2E2E2E2E2E2E2E2E2E2E2E2E2E2E2E2E2E2E2E2E2E2E2E2E2E2E2E2E2E2E2E2E2E2E2E2E2E2E2E2E2E2E2E2E2E2E2E2E2E2E2E2E2E2E2E2E2E2E2E2E2E2E2E2E2E2E2E2E2E2E2E2E2E2E2E2E2E2E2E2E2E2E2E2E2E2E2E2E2E2E2E2E2E2E2E2
310
E2E2E2E2E2E2E2E2E2E2E2E2E2E2E2E2E2E2E2E2E2E2E2E2E2E2E2F5F5E2E2E2E2E2E2E2E2E2E2E2E2E2E2E2E2E2E2E2E2E2E2E2E2E2E2E2E2E2E2E2E2E2E2E2E2E2E2E2E2E2E2E2E2E2E2E2E2E2E2E2E2E2E2E2E2E2E2E2E2E2E2E2E2E2E2E2E2E2E2E2E2E2E2E2E2E2E2E2E2E2E2E2E2E2E2E2E2E2E2E2E2E2E2E2E2E2E2
310
E2E2E2E2E2E2E2E2E2E2E2E2E2E2E2E2E2E2E2E2E2E2E2E2E2E2E2E2E2E2E2E2E2E2E2E2E2E2E2E2E2E2E2E2E2E2E2E2E2E2E2E2E2E2E2E2E2E2E2E2E2E2E2E2E2E2E2E2E2E2E2E2E2E2E2E2E2E2E2E2F5F5E2E2E2E2E2E2E2E2E2E2E2E2E2E2E2E2E2E2E2E2F5F5F5F5F5F5F5F5F5F5F5F5F5F5F5F5F5F5F5F5F5F5F5F5F5
310
F5F5F5F5F5F5F5F5F5F5F5F5F5F5F5F5F5F5F5F5F5F5F5F5F5F5F5F5F5F5F5F5F5F5F5F5F5F5F5F5F5F5F5F5F5F5F5F5F5F5F5F5F5F5F5F5F5F5F5F5F5F5F5F5F5F5F5F5F5F5F5F5F5F5F5F5F5F5F5F5F5F5F5F5F5F5F5F5F5F5F5F5F5F5F5F5F5F5F5F5F5F5F5F5F5F5F5F5F5F5F5F5F5E2E2E2E2E2E2E2E2E2E2E2E2E2E2
310
E2E2E2E2E2E2F5F5E2E2E2E2E2E2E2E2E2E2E2E2E2E2E2E2E2E2E2E2F5E2E2E2E2E2E2E2E2E2E2E2E2E2E2E2E2E2E2E2E2E2E2E2E2E2E2E2E2E2E2F5E2E2E2E2E2E2E2E2E2E2E2E2E2E2E2E2E2E2E2E2E2E2E2E2E2E2E2E2E2E2E2E2E2E2E2E2E2E2E2E2E2E2E2E2E2E2E2E2E2E2E2E2E2E2E2E2E2E2E2E2E2E2E2E2E2E2E2
310
E2E2E2E2E2E2E2F5E2E2E2E2E2E2E2E2E2E2E2E2E2E2E2E2E2E2E2E2E2E2E2E2E2E2E2E2E2E2F5E2E2E2E2E2E2E2E2E2E2E2E2E2E2E2E2E2E2E2E2F5F5E2E2E2E2E2E2E2E2E2E2E2E2E2E2E2E2E2E2E2E2F5E2E2E2E2E2E2E2E2E2E2E2E2E2E2E2E2E2E2E2E2E2E2E2E2E2E2E2E2E2E2F5E2E2E2E2E2E2E2E2E2E2E2E2E2E2
310
E2E2E2E2E2E2E2E2E2E2E2E2E2E2E2E2E2E2E2E2E2E2E2E2E2E2E2E2E2E2E2E2E2E2E2E2E2E2E2E2E2E2E2E2E2E2E2E2E2E2E2E2E2E2E2E2E2E2E2E2F5E2E2E2E2E2E2E2E2E2E2E2E2E2E2E2E2E2E2E2E2E2E2E2E2E2E2E2E2E2E2F5E2E2E2E2E2E2E2E2E2E2E2E2E2E2E2E2E2E2E2E2F5F5E2E2E2E2E2E2E2E2E2E2E2E2E2
310
E2E2E2E2E2E2E2F5E2E2E2E2E2E2E2E2E2E2E2E2E2E2E2E2E2E2E2E2E2E2E2E2E2E2E2E2E2E2F5E2E2E2E2E2E2E2E2E2E2E2E2E2E2E2E2E2E2E2E2E2E2E2E2E2E2E2E2E2E2E2E2E2E2E2E2E2E2E2E2E2E2E2E2E2E2E2E2E2E2E2E2E2E2E2E2E2E2E2E2E2E2E2E2E2E2E2E2E2E2E2E2E2E2F5E2E2E2E2E2E2E2E2E2E2E2E2E2
310
E2E2E2E2E2E2E2E2E2E2E2E2E2E2E2E2E2F5E2E2E2E2E2E2E2E2E2E2E2E2E2E2E2E2E2E2E2E2F5F5E2E2E2E2E2E2E2E2E2E2E2E2E2E2E2E2E2E2E2E2F5E2E2E2E2E2E2E2E2E2E2E2E2E2E2E2E2E2E2E2E2E2E2E2E2E2E2E2E2E2E2F5E2E2E2E2E2E2E2E2E2E2E2E2E2E2E2E2E2E2E2E2E2E2E2E2E2E2E2E2E2E2E2E2E2E2E2
310
E2E2E2E2E2E2E2E2E2E2E2E2E2E2E2E2E2E2E2E2E2E2E2E2E2E2E2E2E2E2E2E2E2E2E2E2E2E2E2F5E2E2E2E2E2E2E2E2E2E2E2E2E2E2E2E2E2E2E2E2E2E2E2E2E2E2E2E2E2E2F5E2E2E2E2E2E2E2E2E2E2E2E2E2E2E2E2E2E2E2E2F5F5E2E2F5E2E2E2E2E2E2E2E2E2E2E2E2E2E2E2E2E2F5E2E2E2E2E2E2E2E2E2E2E2E2E2
310
E2E2E2E2E2E2E2E2E2E2E2E2E2E2E2E2E2F5E2E2E2E2E2E2E2E2E2E2E2E2E2E2E2E2E2E2E2E2E2E2E2E2E2E2E2E2E2E2E2E2E2E2E2E2E2E2E2E2E2E2E2E2E2E2E2E2E2E2E2E2E2E2E2E2E2E2E2E2E2E2E2E2E2E2E2E2E2E2E2E2E2E2F5E2E2E2E2E2E2E2E2E2E2E2E2E2E2E2E2E2E2E2E2E2E2E2E2E2E2E2E2E2E2F5E2E2E2
310
E2E2E2E2E2E2E2E2E2E2E2E2E2E2F5E2E2F5F5E2E2F5E2E2E2E2E2E2E2E2E2E2E2E2E2E2E2E2E2F5E2E2E2E2E2E2E2E2E2E2E2E2E2E2E2E2E2E2E2E2E2E2E2E2E2E2E2E2E2E2F5E2E2E2E2E2E2E2E2E2E2E2E2E2E2E2E2E2E2E2E2E2E2E2E2E2E2E2E2E2E2E2E2E2E2E2E2E2E2E2E2E2E2E2E2E2E2E2E2E2E2E2E2E2E2E2E2
310
E2E2E2E2E2E2E2E2E2E2E2E2E2E2E2E2E2E2F5E2E2E2E2E2E2E2E2E2E2E2E2E2E2E2E2E2E2E2E2E2E2E2E2E2E2E2E2E2E2F5E2E2E2E2E2E2E2E2E2E2E2E2E2E2E2E2E2F5E2E2F5F5E2E2F5E2E2E2E2E2E2E2E2E2E2E2E2E2E2E2E2E2F5E2E2E2E2E2E2E2E2E2E2E2E2E2E2E2E2E2E2E2E2E2E2E2E2E2E2E2E2E2E2F5E2E2E2
310
E2E2E2E2E2E2E2E2E2E2E2E2E2E2E2E2E2E2E2E2E2E2E2E2E2E2E2E2E2E2E2E2E2E2E2E2E2E2E2E2E2E2E2E2E2E2E2E2E2E2E2E2E2E2E2E2E2E2E2E2E2E2E2E2E2E2E2E2E2E2E2F5E2E2E2E2E2E2E2E2E2E2E2E2E2E2E2E2E2E2E2E2E2E2E2E2E2E2E2E2E2E2F5E2E2E2E2E2E2E2E2E2E2E2E2E2E2E2E2E2F5E2E2F5F5E2E2
310
F5E2E2E2E2E2E2E2E2E2E2E2E2E2E2E2E2E2F5E2E2E2E2E2E2E2E2E2E2E2E2E2E2E2E2E2E2E2E2E2E2E2E2E2E2E2E2E2E2F5E2E2E2E2E2E2E2E2E2E2E2E2E2E2E2E2E2E2E2E2E2E2E2E2E2E2E2E2E2E2E2E2E2E2E2E2E2E2E2E2E2E2E2E2E2E2E2E2E2E2E2E2E2E2E2E2E2E2E2E2E2E2E2E2E2E2E2E2E2E2E2E2E2E2F5E2E2
310
E2E2E2E2E2E2E2E2E2E2E2E2E2E2E2E2E2E2E2E2E2E2E2E2E2E2E2E2F5E2E2E2E2E2E2E2E2E2E2E2E2E2E2E2E2E2F5E2E2F5F5E2E2F5E2E2E2E2E2E2E2E2E2E2E2E2E2E2E2E2E2F5E2E2E2E2E2E2E2E2E2E2E2E2E2E2E2E2E2E2E2E2E2E2E2E2E2E2E2E2E2E2F5E2E2E2E2E2E2E2E2E2E2E2E2E2E2E2E2E2E2E2E2E2E2E2E2
310
E2E2E2E2E2E2E2E2E2E2E2E2E2E2E2E2E2E2E2E2E2E2E2E2E2E2E2E2E2E2E2E2E2E2E2E2E2E2E2E2E2E2E2E2E2E2E2E2E2E2F5E2E2E2E2E2E2E2E2E2E2E2E2E2E2E2E2E2E2E2E2E2E2E2E2E2E2E2E2E2E2F5E2E2E2E2E2E2E2E2E2E2E2E2E2E2E2E2E2F5E2E2F5F5E2E2F5E2E2E2E2E2E2E2E2E2E2E2E2E2E2E2E2E2F5E2E2
310
E2E2E2E2E2E2E2E2E2E2E2E2E2E2E2E2E2E2E2E2E2E2E2E2E2E2E2E2F5E2E2E2E2E2E2E2E2E2E2E2E2E2E2E2E2E2E2E2E2E2E2E2E2E2E2E2E2E2E2E2E2E2E2E2E2E2E2E2E2E2E2E2E2E2E2E2E2E2E2E2E2E2E2E2E2E2E2E2E2E2E2E2E2E2E2E2E2E2E2E2E2E2E2F5E2E2E2E2E2E2E2E2E2E2E2E2E2E2E2E2E2E2E2E2E2E2E2
310
E2E2E2E2E2E2E2F5E2E2E2E2E2E2E2E2E2E2E2E2E2E2E2E2E2F5E2E2F5F5E2E2F5E2E2E2E2E2E2E2E2E2E2E2E2E2E2E2E2E2F5E2E2E2E2E2E2E2E2E2E2E2E2E2E2E2E2E2E2E2E2E2E2E2E2E2E2E2E2E2E2F5E2E2E2E2E2E2E2E2E2E2E2E2E2E2E2E2E2E2E2E2E2E2E2E2E2E2E2E2E2E2E2E2E2E2E2E2E2E2E2E2E2E2E2E2E2
310
E2E2E2E2E2E2E2E2E2E2E2E2E2E2E2E2E2E2E2E2E2E2E2E2E2E2E2E2E2F5E2E2E2E2E2E2E2E2E2E2E2E2E2E2E2E2E2E2E2E2E2E2E2E2E2E2E2E2E2E2F5E2E2E2E2E2E2E2E2E2E2E2E2E2E2E2E2E2F5E2E2F5F5E2E2F5E2E2E2E2E2E2E2E2E2E2E2E2E2E2E2E2E2F5E2E2E2E2E2E2E2E2E2E2E2E2E2E2E2E2E2E2E2E2E2E2E2
310
E2E2E2E2E2E2E2F5E2E2E2E2E2E2E2E2E2E2E2E2E2E2E2E2E2E2E2E2E2E2E2E2E2E2E2E2E2E2E2E2E2E2E2E2E2E2E2E2E2E2E2E2E2E2E2E2E2E2E2E2E2E2E2E2E2E2E2E2E2E2E2E2E2E2E2E2E2E2E2E2E2E2F5E2E2E2E2E2E2E2E2E2E2E2E2E2E2E2E2E2E2E2E2E2E2E2E2E2E2E2E2E2E2F5E2E2E2E2E2E2E2E2E2E2E2E2E2
310
E2E2E2E2F5E2E2F5F5E2E2F5E2E2E2E2E2E2E2E2E2E2E2E2E2E2E2E2E2F5E2E2E2E2E2E2E2E2E2E2E2E2E2E2E2E2E2E2E2E2E2E2E2E2E2E2E2E2E2E2F5E2E2E2E2E2E2E2E2E2E2E2E2E2E2E2E2E2E2E2E2E2E2E2E2E2E2E2E2E2E2E2E2E2E2E2E2E2E2E2E2E2E2E2E2E2E2E2E2E2E2E2E2E2E2E2E2E2E2E2E2E2E2E2E2E2E2
310
E2E2E2E2E2E2E2E2F5E2E2E2E2E2E2E2E2E2E2E2E2E2E2E2E2E2E2E2E2E2E2E2E2E2E2E2E2E2E2F5E2E2E2E2E2E2E2E2E2E2E2E2E2E2E2E2E2F5E2E2F5F5E2E2F5E2E2E2E2E2E2E2E2E2E2E2E2E2E2E2E2E2F5E2E2E2E2E2E2E2E2E2E2E2E2E2E2E2E2E2E2E2E2E2E2E2E2E2E2E2E2E2E2F5E2E2E2E2E2E2E2E2E2E2E2E2E2
310
E2E2E2E2E2E2E2E2E2E2E2E2E2E2E2E2E2E2E2E2E2E2E2E2E2E2E2E2E2E2E2E2E2E2E2E2E2E2E2E2E2E2E2E2E2E2E2E2E2E2E2E2E2E2E2E2E2E2E2E2E2F5E2E2E2E2E2E2E2E2E2E2E2E2E2E2E2E2E2E2E2E2E2E2E2E2E2E2E2E2E2E2F5E2E2E2E2E2E2E2E2E2E2E2E2E2E2E2E2E2F5E2E2F5F5E2E2F5E2E2E2E2E2E2E2E2E2
310
E2E2E2E2E2E2E2E2F5E2E2E2E2E2E2E2E2E2E2E2E2E2E2E2E2E2E2E2E2E2E2E2E2E2E2E2E2E2E2F5E2E2E2E2E2E2E2E2E2E2E2E2E2E2E2E2E2E2E2E2E2E2E2E2E2E2E2E2E2E2E2E2E2E2E2E2E2E2E2E2E2E2E2E2E2E2E2E2E2E2E2E2E2E2E2E2E2E2E2E2E2E2E2E2E2E2E2E2E2E2E2E2E2E2F5E2E2E2E2E2E2E2E2E2E2E2E2
310
E2E2E2E2E2E2E2E2E2E2E2E2E2E2E2E2E2E2F5E2E2E2E2E2E2E2E2E2E2E2E2E2E2E2E2E2F5E2E2F5F5E2E2F5E2E2E2E2E2E2E2E2E2E2E2E2E2E2E2E2E2F5E2E2E2E2E2E2E2E2E2E2E2E2E2E2E2E2E2E2E2E2E2E2E2E2E2E2E2E2E2E2F5E2E2E2E2E2E2E2E2E2E2E2E2E2E2E2E2E2E2E2E2E2E2E2E2E2E2E2E2E2E2E2E2E2E2
310
E2E2E2E2E2E2E2E2E2E2E2E2E2E2E2E2E2E2E2E2E2E2E2E2E2E2E2E2E2E2E2E2E2E2E2E2E2E2E2E2F5E2E2E2E2E2E2E2E2E2E2E2E2E2E2E2E2E2E2E2E2E2E2E2E2E2E2E2E2E2E2F5E2E2E2E2E2E2E2E2E2E2E2E2E2E2E2E2E2F5E2E2F5F5E2E2F5E2E2E2E2E2E2E2E2E2E2E2E2E2E2E2E2E2F5E2E2E2E2E2E2E2E2E2E2E2E2
310
E2E2E2E2E2E2E2E2E2E2E2E2E2E2E2E2E2E2F5E2E2E2E2E2E2E2E2E2E2E2E2E2E2E2E2E2E2E2E2E2E2E2E2E2E2E2E2E2E2E2E2E2E2E2E2E2E2E2E2E2E2E2E2E2E2E2E2E2E2E2E2E2E2E2E2E2E2E2E2E2E2E2E2E2E2E2E2E2E2E2E2E2E2F5E2E2E2E2E2E2E2E2E2E2E2E2E2E2E2E2E2E2E2E2E2E2E2E2E2E2E2E2E2E2F5E2E2
310
E2E2E2E2E2E2E2E2E2E2E2E2E2E2E2F5E2E2F5F5E2E2F5E2E2E2E2E2E2E2E2E2E2E2E2E2E2E2E2E2F5E2E2E2E2E2E2E2E2E2E2E2E2E2E2E2E2E2E2E2E2E2E2E2E2E2E2E2E2E2E2F5E2E2E2E2E2E2E2E2E2E2E2E2E2E2E2E2E2E2E2E2E2E2E2E2E2E2E2E2E2E2E2E2E2E2E2E2E2E2E2E2E2E2E2E2E2E2E2E2E2E2E2E2E2E2E2
310
E2E2E2E2E2E2E2E2E2E2E2E2E2E2E2E2E2E2E2F5E2E2E2E2E2E2E2E2E2E2E2E2E2E2E2E2E2E2E2E2E2E2E2E2E2E2E2E2E2E2F5E2E2E2E2E2E2E2E2E2E2E2E2E2E2E2E2E2F5E2E2F5F5E2E2F5E2E2E2E2E2E2E2E2E2E2E2E2E2E2E2E2E2F5E2E2E2E2E2E2E2E2E2E2E2E2E2E2E2E2E2E2E2E2E2E2E2E2E2E2E2E2E2E2F5E2E2
310
E2E2E2E2E2E2E2E2E2E2E2E2E2E2E2E2E2E2E2E2E2E2E2E2E2E2E2E2E2E2E2E2E2E2E2E2E2E2E2E2E2E2E2E2E2E2E2E2E2E2E2E2E2E2E2E2E2E2E2E2E2E2E2E2E2E2E2E2E2E2E2E2F5E2E2E2E2E2E2E2E2E2E2E2E2E2E2E2E2E2E2E2E2E2E2E2E2E2E2E2E2E2E2F5E2E2E2E2E2E2E2E2E2E2E2E2E2E2E2E2E2F5E2E2F5F5E2
310
E2E2E2E2E2E2E2E2E2E2E2E2E2E2E2E2E2E2E2F5E2E2E2E2E2E2E2E2E2E2E2E2E2E2E2E2E2E2E2E2E2E2E2E2E2E2E2E2E2E2F5E2E2E2E2E2E2E2E2E2E2E2E2E2E2E2E2E2E2E2E2E2E2E2E2E2E2E2E2E2E2E2E2E2E2E2E2E2E2E2E2E2E2E2E2E2E2E2E2E2E2E2E2E2E2E2E2E2E2E2E2E2E2E2E2E2E2E2E2E2E2E2E2E2E2F5E2
310
E2E2E2E2E2E2E2E2E2E2E2E2E2E2E2E2E2E2E2E2E2E2E2E2E2E2E2E2E2F5E2E2E2E2E2E2E2E2E2E2E2E2E2E2E2E2E2E2E2E2F5F5E2E2E2E2E2E2E2E2E2E2E2E2E2E2E2E2E2E2E2E2F5E2E2E2E2E2E2E2E2E2E2E2E2E2E2E2E2E2E2E2E2E2E2E2E2E2E2E2E2E2E2F5E2E2E2E2E2E2E2E2E2E2E2E2E2E2E2E2E2E2E2E2E2E2E2
310
E2E2E2E2E2E2E2E2E2E2E2E2E2E2E2E2E2E2E2E2E2E2E2E2E2E2E2E2E2E2E2E2E2E2E2E2E2E2E2E2E2E2E2E2E2E2E2E2E2E2E2F5E2E2E2E2E2E2E2E2E2E2E2E2E2E2E2E2E2E2E2E2E2E2E2E2E2E2E2E2E2E2F5E2E2E2E2E2E2E2E2E2E2E2E2E2E2E2E2E2E2E2E2F5F5E2E2E2E2E2E2E2E2E2E2E2E2E2E2E2E2E2E2E2E2F5E2
310
E2E2E2E2E2E2E2E2E2E2E2E2E2E2E2E2E2E2E2E2E2E2E2E2E2E2E2E2E2F5E2E2E2E2E2E2E2E2E2E2E2E2E2E2E2E2E2E2E2E2E2E2E2E2E2E2E2E2E2E2E2E2E2E2E2E2E2E2E2E2E2E2E2E2E2E2E2E2E2E2E2E2E2E2E2E2E2E2E2E2E2E2E2E2E2E2E2E2E2E2E2E2E2E2F5E2E2E2E2E2E2E2E2E2E2E2E2E2E2E2E2E2E2E2E2E2E2
310
E2E2E2E2E2E2E2E2F5E2E2E2E2E2E2E2E2E2E2E2E2E2E2E2E2E2E2E2E2F5F5E2E2E2E2E2E2E2E2E2E2E2E2E2E2E2E2E2E2E2E2F5E2E2E2E2E2E2E2E2E2E2E2E2E2E2E2E2E2E2E2E2E2E2E2E2E2E2E2E2E2E2F5E2E2E2E2E2E2E2E2E2E2E2E2E2E2E2E2E2E2E2E2E2E2E2E2E2E2E2E2E2E2E2E2E2E2E2E2E2E2E2E2E2E2E2E2
310
E2E2E2E2E2E2E2E2E2E2E2E2E2E2E2E2E2E2E2E2E2E2E2E2E2E2E2E2E2E2F5E2E2E2E2E2E2E2E2E2E2E2E2E2E2E2E2E2E2E2E2E2E2E2E2E2E2E2E2E2E2F5E2E2E2E2E2E2E2E2E2E2E2E2E2E2E2E2E2E2E2E2F5F5E2E2E2E2E2E2E2E2E2E2E2E2E2E2E2E2E2E2E2E2F5E2E2E2E2E2E2E2E2E2E2E2E2E2E2E2E2E2E2E2E2E2E2
310
E2E2E2E2E2E2E2E2F5E2E2E2E2E2E2E2E2E2E2E2E2E2E2E2E2E2E2E2E2E2E2E2E2E2E2E2E2E2E2E2E2E2E2E2E2E2E2E2E2E2E2E2E2E2E2E2E2E2E2E2E2E2E2E2E2E2E2E2E2E2E2E2E2E2E2E2E2E2E2E2E2E2E2F5E2E2E2E2E2E2E2E2E2E2E2E2E2E2E2E2E2E2E2E2E2E2E2E2E2E2E2E2E2E2F5E2E2E2E2E2E2E2E2E2E2E2E2
310
E2E2E2E2E2E2E2E2F5F5E2E2E2E2E2E2E2E2E2E2E2E2E2E2E2E2E2E2E2E2F5E2E2E2E2E2E2E2E2E2E2E2E2E2E2E2E2E2E2E2E2E2E2E2E2E2E2E2E2E2E2F5F5F5F5F5E2E2E2E2E2E2E2E2E2E2E2E2E2E2E2E2E2E2E2E2E2E2E2E2E2E2E2E2E2E2E2E2E2E2E2E2E2E2E2E2E2E2E2E2E2E2E2E2E2E2E2E2E2E2E2E2E2E2E2E2E2
310
E2E2E2E2E2E2E2E2E2F5E2E2E2E2E2E2E2E2E2E2E2E2E2E2E2E2E2E2E2E2E2E2E2E2E2E2E2E2E2E2F5E2E2E2E2E2E2E2E2E2E2E2E2E2E2E2E2E2E2E2E2F5F5E2E2E2E2E2E2E2E2E2E2E2E2E2E2E2E2E2E2E2E2F5E2E2E2E2E2E2E2E2E2E2E2E2E2E2E2E2E2E2E2E2E2E2E2E2E2E2E2E2E2E2E2E2E2E2F5E2E2E2E2E2E2E2E2
310
E2E2E2E2E2E2E2E2E2E2E2E2E2E2E2E2E2E2E2E2E2E2E2E2E2E2E2E2E2E2E2E2E2E2E2E2E2E2E2E2E2E2E2E2E2E2E2E2E2E2E2E2E2E2E2E2E2E2E2E2E2E2F5E2E2E2E2E2E2E2E2E2E2E2E2E2E2E2E2E2E2E2E2E2E2E2E2E2E2E2E2E2E2F5E2E2E2E2E2E2E2E2E2E2E2E2E2E2E2E2E2E2E2E2F5F5E2E2E2E2E2E2E2E2E2E2E2
310
E2E2E2E2E2E2E2E2E2F5E2E2E2E2E2E2E2E2E2E2E2E2E2E2E2E2E2E2E2E2E2E2E2E2E2E2E2E2E2E2E2E2E2E2F5E2E2E2E2E2E2E2E2E2E2E2E2E2E2E2E2E2E2E2E2E2E2E2E2E2E2E2E2E2E2E2E2E2E2E2E2E2E2E2E2E2E2E2E2E2E2E2E2E2E2E2E2E2E2E2E2E2E2E2E2E2E2E2E2E2E2E2E2E2E2F5E2E2E2E2E2E2E2E2E2E2E2
310
E2E2E2E2E2E2E2E2E2E2E2E2E2E2E2E2E2E2E2F5E2E2E2E2E2E2E2E2E2E2E2E2E2E2E2E2E2E2E2E2F5F5E2E2F5E2E2E2E2E2E2E2E2E2E2E2E2E2E2E2E2E2F5E2E2E2E2E2E2E2E2E2E2E2E2E2E2E2E2E2E2E2E2E2E2E2E2E2E2E2E2E2E2E2E2E2E2F5E2E2E2E2E2E2E2E2E2E2E2E2E2E2E2E2E2E2E2E2E2E2E2E2E2E2E2E2E2
310
E2E2E2E2E2E2E2E2E2E2E2E2E2E2E2E2E2E2E2E2E2E2E2E2E2E2E2E2E2E2E2E2E2E2E2E2E2E2E2E2E2F5E2E2E2E2E2E2E2E2E2E2E2E2E2E2E2E2E2E2E2E2E2E2E2E2E2E2E2E2E2E2F5E2E2E2E2E2E2E2E2E2E2E2E2E2E2E2E2E2F5E2E2F5F5E2E2F5E2E2E2E2E2E2E2E2E2E2E2E2E2E2E2E2E2F5E2E2E2E2E2E2E2E2E2E2E2
310
E2E2E2E2E2E2E2E2E2E2E2E2E2E2E2E2E2E2E2E2E2E2E2F5E2E2E2E2E2E2E2E2E2E2E2E2E2E2E2E2E2E2E2E2E2E2E2E2E2E2E2E2E2E2E2E2E2E2E2E2E2E2E2E2E2E2F5F5F5F5F5F5F5F5F5F5F5F5F5F5F5F5F5F5F5F5E2E2E2E2E2E2E2E2F5E2E2E2E2E2E2E2E2E2E2E2E2E2E2E2E2E2E2E2E2E2E2E2E2E2E2E2E2E2E2F5E2
310
E2E2E2E2E2E2E2E2E2E2E2E2E2E2E2E2F5E2E2F5F5E2E2F5E2E2E2E2E2E2E2E2E2E2E2E2E2E2E2E2E2F5E2E2E2E2E2E2E2E2E2E2E2E2E2E2E2E2E2E2E2E2E2E2E2E2E2E2E2E2E2E2E2E2E2E2F5E2E2E2E2E2E2E2E2E2E2E2E2E2E2E2E2E2E2E2E2E2E2E2E2E2E2E2E2E2E2E2E2E2E2E2E2E2E2E2E2E2E2F5E2E2E2E2E2E2E2
310
E2E2E2E2E2E2E2E2E2E2E2F5E2E2E2E2E2E2E2E2F5E2E2E2E2E2E2E2E2E2E2E2E2E2E2E2E2E2E2E2E2E2E2E2E2E2E2E2E2E2E2F5E2E2E2E2E2E2E2E2E2E2E2E2E2E2E2E2E2F5E2E2F5F5E2E2F5E2E2E2E2E2E2E2E2E2E2E2E2E2E2E2E2E2F5E2E2E2E2E2E2E2E2E2E2E2E2E2E2E2E2E2E2E2E2E2E2E2E2E2E2E2E2E2E2E2E2
310
E2E2F5E2E2E2E2E2E2E2E2E2E2E2E2E2E2E2E2E2E2E2E2E2E2E2E2E2E2E2E2E2E2E2E2E2E2E2E2E2E2E2E2E2E2F5E2E2E2E2E2E2E2E2E2E2E2E2E2E2E2E2E2E2F5E2E2E2E2E2E2E2E2F5E2E2E2E2E2E2E2E2E2E2E2E2E2E2E2E2E2E2E2E2E2E2E2E2E2E2E2E2E2E2F5E2E2E2E2E2E2E2E2E2E2E2E2E2E2E2E2E2F5E2E2F5F5
310
E2E2F5E2E2E2E2E2E2E2E2E2E2E2E2E2E2E2E2E2F5E2E2E2E2E2E2E2E2E2E2E2E2E2E2E2E2E2E2E2E2E2E2E2E2E2E2E2E2E2E2E2E2E2E2F5E2E2E2E2E2E2E2E2E2E2E2E2E2E2E2E2E2E2E2E2E2E2E2E2E2E2E2E2E2E2E2E2E2E2E2E2E2E2E2E2E2E2F5E2E2E2E2E2E2E2E2E2E2E2E2E2E2E2E2E2E2F5E2E2E2E2E2E2E2E2F5
310
E2E2E2E2E2E2E2E2E2E2E2E2E2E2E2E2E2E2E2E2E2E2E2E2E2E2E2E2E2E2F5E2E2E2E2E2E2E2E2E2E2E2E2E2E2E2E2E2F5E2E2F5F5E2E2F5E2E2E2E2E2E2E2E2E2E2E2E2E2E2E2E2E2F5E2E2E2E2E2E2E2E2E2E2E2E2E2E2E2E2E2E2E2E2E2E2E2E2E2E2E2E2E2E2E2E2E2E2F5E2E2E2E2E2E2E2E2E2E2E2E2E2E2E2E2E2E2
310
E2E2E2E2E2E2E2E2E2E2E2E2E2E2E2E2E2E2E2E2E2E2E2E2F5E2E2E2E2E2E2E2E2E2E2E2E2E2E2E2E2E2E2F5E2E2E2E2E2E2E2E2F5E2E2E2E2E2E2E2E2E2E2E2E2E2E2E2E2E2E2E2E2E2E2E2E2E2E2E2E2E2E2F5E2E2E2E2E2E2E2E2E2E2E2E2E2E2E2E2E2F5E2E2F5F5E2E2F5E2E2E2E2E2E2E2E2E2E2E2E2E2E2E2E2E2F5
310
E2E2E2E2E2E2E2E2E2E2E2E2E2E2E2E2E2E2E2E2E2E2E2E2E2E2E2E2E2E2E2E2E2E2F5E2E2E2E2E2E2E2E2E2E2E2E2E2E2E2E2E2E2E2E2E2E2E2E2E2E2E2E2E2E2E2E2E2E2E2E2E2E2E2E2E2E2F5E2E2E2E2E2E2E2E2E2E2E2E2E2E2E2E2E2E2F5E2E2E2E2E2E2E2E2F5E2E2E2E2E2E2E2E2E2E2E2E2E2E2E2E2E2E2E2E2E2
310
E2E2E2E2E2E2E2E2E2F5E2E2E2E2E2E2E2E2E2E2E2E2E2E2E2E2E2F5E2E2F5F5E2E2F5E2E2E2E2E2E2E2E2E2E2E2E2E2E2E2E2E2F5E2E2E2E2E2E2E2E2E2E2E2E2E2E2E2E2E2E2E2E2E2E2E2E2E2E2E2E2E2E2E2E2E2E2F5E2E2E2E2E2E2E2E2E2E2E2E2E2E2E2E2E2E2E2E2E2E2E2E2E2E2E2E2E2E2E2E2E2E2E2E2E2E2E2
310
E2E2E2F5E2E2E2E2E2E2E2E2E2E2E2E2E2E2E2E2E2E2F5E2E2E2E2E2E2E2E2F5E2E2E2E2E2E2E2E2E2E2E2E2E2E2E2E2E2E2E2E2E2E2E2E2E2E2E2E2E2E2F5E2E2E2E2E2E2E2E2E2E2E2E2E2E2E2E2E2F5E2E2F5F5E2E2F5E2E2E2E2E2E2E2E2E2E2E2E2E2E2E2E2E2F5E2E2E2E2E2E2E2E2E2E2E2E2E2E2E2E2E2E2E2E2E2
310
E2E2E2E2E2E2E2E2E2E2E2E2E2F5E2E2E2E2E2E2E2E2E2E2E2E2E2E2E2E2E2E2E2E2E2E2E2E2E2E2E2E2E2E2E2E2E2E2E2E2E2E2E2E2E2E2F5E2E2E2E2E2E2E2E2E2E2E2E2E2E2E2E2E2E2F5E2E2E2E2E2E2E2E2F5E2E2E2E2E2E2E2E2E2E2E2E2E2E2E2E2E2E2E2E2E2E2E2E2E2E2E2E2E2E2F5E2E2E2E2E2E2E2E2E2E2E2
310
E2E2E2E2E2E2F5E2E2F5F5E2E2F5E2E2E2E2E2E2E2E2E2E2E2E2E2E2E2E2E2F5E2E2E2E2E2E2E2E2E2E2E2E2E2E2E2E2E2E2E2E2E2E2E2E2E2E2E2E2E2E2E2E2E2E2F5E2E2E2E2E2E2E2E2E2E2E2E2E2E2E2E2E2E2E2E2E2E2E2E2E2E2E2E2E2E2E2E2E2E2E2E2E2E2E2E2E2E2F5E2E2E2E2E2E2E2E2E2E2E2E2E2E2E2E2E2
310
E2F5E2E2E2E2E2E2E2E2F5E2E2E2E2E2E2E2E2E2E2E2E2E2E2E2E2E2E2E2E2E2E2E2E2E2E2E2E2E2E2F5E2E2E2E2E2E2E2E2E2E2E2E2E2E2E2E2E2F5E2E2F5F5E2E2F5E2E2E2E2E2E2E2E2E2E2E2E2E2E2E2E2E2F5E2E2E2E2E2E2E2E2E2E2E2E2E2E2E2E2E2E2E2E2E2E2E2E2E2E2E2E2E2E2E2E2E2E2F5E2E2E2E2E2E2E2
310
E2E2E2E2E2E2E2E2E2E2E2E2E2E2E2E2E2E2E2E2E2E2E2E2E2E2E2E2E2E2E2E2E2E2E2F5E2E2E2E2E2E2E2E2E2E2E2E2E2E2E2E2E2E2F5E2E2E2E2E2E2E2E2F5E2E2E2E2E2E2E2E2E2E2E2E2E2E2E2E2E2E2E2E2E2E2E2E2E2E2E2E2E2E2F5E2E2E2E2E2E2E2E2E2E2E2E2E2E2E2E2E2F5E2E2F5F5E2E2F5E2E2E2E2E2E2E2
310
E2E2E2E2E2E2E2E2E2E2F5E2E2E2E2E2E2E2E2E2E2E2E2E2E2E2E2E2E2E2E2E2E2E2E2E2E2E2E2E2E2E2E2E2E2F5E2E2E2E2E2E2E2E2E2E2E2E2E2E2E2E2E2E2E2E2E2E2E2E2E2E2E2E2E2E2E2E2E2E2E2E2E2E2E2E2E2E2F5E2E2E2E2E2E2E2E2E2E2E2E2E2E2E2E2E2E2F5E2E2E2E2E2E2E2E2F5E2E2E2E2E2E2E2E2E2E2
310
E2E2E2E2E2E2E2E2E2E2E2E2E2E2E2E2E2E2E2E2F5E2E2E2E2E2E2E2E2E2E2E2E2E2E2E2E2E2F5E2E2F5F5E2E2F5E2E2E2E2E2E2E2E2E2E2E2E2E2E2E2E2E2F5E2E2E2E2E2E2E2E2E2E2E2E2E2E2E2E2E2E2E2E2E2E2E2E2E2E2E2E2E2E2E2E2E2E2F5E2E2E2E2E2E2E2E2E2E2E2E2E2E2E2E2E2E2E2E2E2E2E2E2E2E2E2E2
310
E2E2E2E2E2E2E2E2E2E2E2E2E2E2F5E2E2E2E2E2E2E2E2E2E2E2E2E2E2E2E2E2E2F5E2E2E2E2E2E2E2E2F5E2E2E2E2E2E2E2E2E2E2E2E2E2E2E2E2E2E2E2E2E2E2E2E2E2E2E2E2E2E2F5E2E2E2E2E2E2E2E2E2E2E2E2E2E2E2E2E2F5E2E2F5F5E2E2F5E2E2E2E2E2E2E2E2E2E2E2E2E2E2E2E2E2F5E2E2E2E2E2E2E2E2E2E2
310
E2E2E2E2E2E2E2E2E2E2E2E2E2E2E2E2E2E2E2E2E2E2E2E2F5E2E2E2E2E2E2E2E2E2E2E2E2E2E2E2E2E2E2E2E2E2E2E2E2E2E2E2E2E2E2E2E2E2E2E2E2E2E2E2E2E2E2F5E2E2E2E2E2E2E2E2E2E2E2E2E2E2E2E2E2E2F5E2E2E2E2E2E2E2E2F5E2E2E2E2E2E2E2E2E2E2E2E2E2E2E2E2E2E2E2E2E2E2E2E2E2E2E2E2E2E2F5
310
E2E2E2E2E2E2E2E2E2E2E2E2E2E2E2E2E2F5E2E2F5F5E2E2F5E2E2E2E2E2E2E2E2E2E2E2E2E2E2E2E2E2F5E2E2E2E2E2E2E2E2E2E2E2E2E2E2E2E2E2E2E2E2E2E2E2E2E2E2E2E2E2E2E2E2E2E2F5E2E2E2E2E2E2E2E2E2E2E2E2E2E2E2E2E2E2E2E2E2E2E2E2E2E2E2E2E2E2E2E2E2E2E2E2E2E2E2E2E2E2F5E2E2E2E2E2E2
310
E2E2E2E2E2E2E2E2E2E2E2E2F5E2E2E2E2E2E2E2E2F5E2E2E2E2E2E2E2E2E2E2E2E2E2E2E2E2E2E2E2E2E2E2E2E2E2E2E2E2E2E2F5E2E2E2E2E2E2E2E2E2E2E2E2E2E2E2E2E2F5E2E2F5F5E2E2F5E2E2E2E2E2E2E2E2E2E2E2E2E2E2E2E2E2F5E2E2E2E2E2E2E2E2E2E2E2E2E2E2E2E2E2E2E2E2E2E2E2E2E2E2E2E2E2E2E2
310
E2E2E2F5E2E2E2E2E2E2E2E2E2E2E2E2E2E2E2E2E2E2E2E2E2E2E2E2E2E2E2E2E2E2E2E2E2E2E2E2E2E2E2E2E2E2F5E2E2E2E2E2E2E2E2E2E2E2E2E2E2E2E2E2E2F5E2E2E2E2E2E2E2E2F5E2E2E2E2E2E2E2E2E2E2E2E2E2E2E2E2E2E2E2E2E2E2E2E2E2E2E2E2E2E2F5E2E2E2E2E2E2E2E2E2E2E2E2E2E2E2E2E2F5E2E2F5
310
F5E2E2E2E2E2E2E2E2E2E2E2E2E2E2E2E2E2E2E2E2F5E2E2E2E2E2E2E2E2E2E2E2E2E2E2E2E2E2E2E2E2E2E2E2E2E2E2E2E2E2E2E2E2E2E2F5E2E2E2E2E2E2E2E2E2E2E2E2E2E2E2E2E2E2E2E2E2E2E2E2E2E2E2E2E2E2E2E2E2E2E2E2E2E2E2E2E2E2F5E2E2E2E2E2E2E2E2E2E2E2E2E2E2E2E2E2E2F5E2E2E2E2E2E2E2E2
310
F5E2E2E2E2E2E2E2E2E2E2E2E2E2E2E2E2E2E2E2E2E2E2E2E2E2E2E2E2E2E2F5E2E2E2E2E2E2E2E2E2E2E2E2E2E2E2E2E2E2E2E2F5F5E2E2E2E2E2E2E2E2E2E2E2E2E2E2E2E2E2E2E2E2F5E2E2E2E2E2E2E2E2E2E2E2E2E2E2E2E2E2E2E2E2E2E2E2E2E2E2E2E2E2E2E2E2E2E2F5E2E2E2E2E2E2E2E2E2E2E2E2E2E2E2E2E2
310
E2E2E2E2E2E2E2E2E2E2E2E2E2E2E2E2E2E2E2E2E2E2E2E2E2F5E2E2E2E2E2E2E2E2E2E2E2E2E2E2E2E2E2E2F5E2E2E2E2E2E2E2E2F5E2E2E2E2E2E2E2E2E2E2E2E2E2E2E2E2E2E2E2E2E2E2E2E2E2E2E2E2E2E2F5E2E2E2E2E2E2E2E2E2E2E2E2E2E2E2E2E2E2E2E2F5F5E2E2E2E2E2E2E2E2E2E2E2E2E2E2E2E2E2E2E2E2
310
F5E2E2E2E2E2E2E2E2E2E2E2E2E2E2E2E2E2E2E2E2E2E2E2E2E2E2E2E2E2E2E2E2E2E2F5E2E2E2E2E2E2E2E2E2E2E2E2E2E2E2E2E2E2E2E2E2E2E2E2E2E2E2E2E2E2E2E2E2E2E2E2E2E2E2E2E2E2F5E2E2E2E2E2E2E2E2E2E2E2E2E2E2E2E2E2E2F5E2E2E2E2E2E2E2E2F5E2E2E2E2E2E2E2E2E2E2E2E2E2E2E2E2E2E2E2E2
310
E2E2E2E2E2E2E2E2E2E2F5E2E2E2E2E2E2E2E2E2E2E2E2E2E2E2E2E2E2E2E2F5F5E2E2E2E2E2E2E2E2E2E2E2E2E2E2E2E2E2E2E2E2F5E2E2E2E2E2E2E2E2E2E2E2E2E2E2E2E2E2E2E2E2E2E2E2E2E2E2E2E2E2E2E2E2E2E2F5E2E2E2E2E2E2E2E2E2E2E2E2E2E2E2E2E2E2E2E2E2E2E2E2E2E2E2E2E2E2E2E2E2E2E2E2E2E2
310
E2E2E2E2F5E2E2E2E2E2E2E2E2E2E2E2E2E2E2E2E2E2E2F5E2E2E2E2E2E2E2E2F5E2E2E2E2E2E2E2E2E2E2E2E2E2E2E2E2E2E2E2E2E2E2E2E2E2E2E2E2E2E2F5E2E2E2E2E2E2E2E2E2E2E2E2E2E2E2E2E2E2E2E2F5F5E2E2E2E2E2E2E2E2E2E2E2E2E2E2E2E2E2E2E2E2F5E2E2E2E2E2E2E2E2E2E2E2E2E2E2E2E2E2E2E2E2
310
E2E2E2E2E2E2E2E2E2E2E2E2E2E2F5E2E2E2E2E2E2E2E2E2E2E2E2E2E2E2E2E2E2E2E2E2E2E2E2E2E2E2E2E2E2E2E2E2E2E2E2E2E2E2E2E2E2F5E2E2E2E2E2E2E2E2E2E2E2E2E2E2E2E2E2E2F5E2E2E2E2E2E2E2E2F5E2E2E2E2E2E2E2E2E2E2E2E2E2E2E2E2E2E2E2E2E2E2E2E2E2E2E2E2E2E2F5E2E2E2E2E2E2E2E2E2E2
310
E2E2E2E2E2E2E2E2E2E2F5F5E2E2E2E2E2E2E2E2E2E2E2E2E2E2E2E2E2E2E2E2F5E2E2E2E2E2E2E2E2E2E2E2E2E2E2E2E2E2E2E2E2E2E2E2E2E2E2E2E2E2E2E2E2E2E2F5E2E2E2E2E2E2E2E2E2E2E2E2E2E2E2E2E2E2E2E2E2E2E2E2E2E2E2E2E2E2E2E2E2E2E2E2E2E2E2E2E2E2F5E2E2E2E2E2E2E2E2E2E2E2E2E2E2E2E2
310
E2E2F5E2E2E2E2E2E2E2E2F5E2E2E2E2E2E2E2E2E2E2E2E2E2E2E2E2E2E2E2E2E2E2E2E2E2E2E2E2E2E2F5E2E2E2E2E2E2E2E2E2E2E2E2E2E2E2E2E2E2E2E2F5F5E2E2E2E2E2E2E2E2E2E2E2E2E2E2E2E2E2E2E2E2F5E2E2E2E2E2E2E2E2E2E2E2E2E2E2E2E2E2E2E2E2E2E2E2E2E2E2E2E2E2E2E2E2E2E2F5E2E2E2E2E2E2
310
E2E2E2E2E2E2E2E2E2E2E2E2E2E2E2E2E2E2E2E2E2E2E2E2E2E2E2E2E2E2E2E2E2E2E2E2F5E2E2E2E2E2E2E2E2E2E2E2E2E2E2E2E2E2E2F5E2E2E2E2E2E2E2E2F5E2E2E2E2E2E2E2E2E2E2E2E2E2E2E2E2E2E2E2E2E2E2E2E2E2E2E2E2E2E2F5E2E2E2E2E2E2E2E2E2E2E2E2E2E2E2E2E2E2E2E2F5F5E2E2E2E2E2E2E2E2E2
310
E2E2E2E2E2E2E2E2E2E2E2F5E2E2E2E2E2E2E2E2E2E2E2E2E2E2E2E2E2E2E2E2E2E2E2E2E2E2E2E2E2E2E2E2E2E2F5E2E2E2E2E2E2E2E2E2E2E2E2E2E2E2E2E2E2E2E2E2E2E2E2E2E2E2E2E2E2E2E2E2E2E2E2E2E2E2E2E2E2F5E2E2E2E2E2E2E2E2E2E2E2E2E2E2E2E2E2E2F5E2E2E2E2E2E2E2E2F5E2E2E2E2E2E2E2E2E2
310
E2E2E2E2E2E2E2E2E2E2E2E2E2E2E2E2E2E2E2E2E2F5E2E2E2E2E2E2E2E2E2E2E2E2E2E2E2E2E2E2E2E2F5F5E2E2F5E2E2E2E2E2E2E2E2E2E2E2E2E2E2E2E2E2F5E2E2E2E2E2E2E2E2E2E2E2E2E2E2E2E2E2E2E2E2E2E2E2E2E2E2E2E2E2E2E2E2E2E2F5E2E2E2E2E2E2E2E2E2E2E2E2E2E2E2E2E2E2E2E2E2E2E2E2E2E2E2
310
E2E2E2E2E2E2E2E2E2E2E2E2E2E2E2F5E2E2E2E2E2E2E2E2E2E2E2E2E2E2E2E2E2E2F5E2E2E2E2E2E2E2E2F5E2E2E2E2E2E2E2E2E2E2E2E2E2E2E2E2E2E2E2E2E2E2E2E2E2E2E2E2E2E2F5E2E2E2E2E2E2E2E2E2E2E2E2E2E2E2E2E2F5E2E2F5F5E2E2F5E2E2E2E2E2E2E2E2E2E2E2E2E2E2E2E2E2F5E2E2E2E2E2E2E2E2E2
310
E2E2E2E2E2E2E2E2E2E2E2E2E2E2E2E2E2E2E2E2E2E2E2E2E2F5E2E2E2E2E2E2E2E2E2E2E2E2E2E2E2E2E2E2E2E2E2E2E2E2E2E2E2E2E2E2E2E2E2E2E2E2E2E2E2E2E2E2F5E2E2E2E2E2E2E2E2E2E2E2E2E2E2E2E2E2E2F5E2E2E2E2E2E2E2E2F5E2E2E2E2E2E2E2E2E2E2E2E2E2E2E2E2E2E2E2E2E2E2E2E2E2E2E2E2E2E2
310
F5E2E2E2E2E2E2E2E2E2E2E2E2E2E2E2E2E2F5E2E2F5F5E2E2F5E2E2E2E2E2E2E2E2E2E2E2E2E2E2E2E2E2F5E2E2E2E2E2E2E2E2E2E2E2E2E2E2E2E2E2E2E2E2E2E2E2E2E2E2E2E2E2E2E2E2E2E2F5E2E2E2E2E2E2E2E2E2E2E2E2E2E2E2E2E2E2E2E2E2E2E2E2E2E2E2E2E2E2E2E2E2E2E2E2E2E2E2E2E2E2F5E2E2E2E2E2
310
E2E2E2E2E2E2E2E2E2E2E2E2E2F5E2E2E2E2E2E2E2E2F5E2E2E2E2E2E2E2E2E2E2E2E2E2E2E2E2E2E2E2E2E2E2E2E2E2E2E2E2E2E2F5E2E2E2E2E2E2E2E2E2E2E2E2E2E2E2E2E2F5E2E2F5F5E2E2F5E2E2E2E2E2E2E2E2E2E2E2E2E2E2E2E2E2F5E2E2E2E2E2E2E2E2E2E2E2E2E2E2E2E2E2E2E2E2E2E2E2E2E2E2E2E2E2E2
310
E2E2E2E2F5E2E2E2E2E2E2E2E2E2E2E2E2E2E2E2E2E2E2E2E2E2E2E2E2E2E2E2E2E2E2E2E2E2E2E2E2E2E2E2E2E2E2F5E2E2E2E2E2E2E2E2E2E2E2E2E2E2E2E2E2E2F5E2E2E2E2E2E2E2E2F5E2E2E2E2E2E2E2E2E2E2E2E2E2E2E2E2E2E2E2E2E2E2E2E2E2E2E2E2E2E2F5E2E2E2E2E2E2E2E2E2E2E2E2E2E2E2E2E2F5E2E2
310
F5F5E2E2F5E2E2E2E2E2E2E2E2E2E2E2E2E2E2E2E2E2F5E2E2E2E2E2E2E2E2E2E2E2E2E2E2E2E2E2E2E2E2E2E2E2E2E2E2E2E2E2E2E2E2E2E2F5E2E2E2E2E2E2E2E2E2E2E2E2E2E2E2E2E2E2E2E2E2E2E2E2E2E2E2E2E2E2E2E2E2E2E2E2E2E2E2E2E2E2F5E2E2E2E2E2E2E2E2E2E2E2E2E2E2E2E2E2E2F5E2E2E2E2E2E2E2
310
E2F5E2E2E2E2E2E2E2E2E2E2E2E2E2E2E2E2E2E2E2E2E2E2E2E2E2E2E2E2E2E2F5E2E2E2E2E2E2E2E2E2E2E2E2E2E2E2E2E2F5E2E2F5F5E2E2F5E2E2E2E2E2E2E2E2E2E2E2E2E2E2E2E2E2F5E2E2E2E2E2E2E2E2E2E2E2E2E2E2E2E2E2E2E2E2E2E2E2E2E2E2E2E2E2E2E2E2E2E2F5E2E2E2E2E2E2E2E2E2E2E2E2E2E2E2E2
310
E2E2E2E2E2E2E2E2E2E2E2E2E2E2E2E2E2E2E2E2E2E2E2E2E2E2F5E2E2E2E2E2E2E2E2E2E2E2E2E2E2E2E2E2E2F5E2E2E2E2E2E2E2E2F5E2E2E2E2E2E2E2E2E2E2E2E2E2E2E2E2E2E2E2E2E2E2E2E2E2E2E2E2E2E2F5E2E2E2E2E2E2E2E2E2E2E2E2E2E2E2E2E2F5E2E2F5F5E2E2F5E2E2E2E2E2E2E2E2E2E2E2E2E2E2E2E2
310
E2F5E2E2E2E2E2E2E2E2E2E2E2E2E2E2E2E2E2E2E2E2E2E2E2E2E2E2E2E2E2E2E2E2E2E2F5E2E2E2E2E2E2E2E2E2E2E2E2E2E2E2E2E2E2E2E2E2E2E2E2E2E2E2E2E2E2E2E2E2E2E2E2E2E2E2E2E2E2F5E2E2E2E2E2E2E2E2E2E2E2E2E2E2E2E2E2E2F5E2E2E2E2E2E2E2E2F5E2E2E2E2E2E2E2E2E2E2E2E2E2E2E2E2E2E2E2
310
E2E2E2E2E2E2E2E2E2E2E2F5E2E2E2E2E2E2E2E2E2E2E2E2E2E2E2E2E2F5E2E2F5F5E2E2F5E2E2E2E2E2E2E2E2E2E2E2E2E2E2E2E2E2F5E2E2E2E2E2E2E2E2E2E2E2E2E2E2E2E2E2E2E2E2E2E2E2E2E2E2E2E2E2E2E2E2E2E2F5E2E2E2E2E2E2E2E2E2E2E2E2E2E2E2E2E2E2E2E2E2E2E2E2E2E2E2E2E2E2E2E2E2E2E2E2E2
310
E2E2E2E2E2F5E2E2E2E2E2E2E2E2E2E2E2E2E2E2E2E2E2E2F5E2E2E2E2E2E2E2E2F5E2E2E2E2E2E2E2E2E2E2E2E2E2E2E2E2E2E2E2E2E2E2E2E2E2E2E2E2E2E2F5E2E2E2E2E2E2E2E2E2E2E2E2E2E2E2E2E2F5E2E2F5F5E2E2F5E2E2E2E2E2E2E2E2E2E2E2E2E2E2E2E2E2F5E2E2E2E2E2E2E2E2E2E2E2E2E2E2E2E2E2E2E2
310
E2E2E2E2E2E2E2E2E2E2E2E2E2E2E2F5E2E2E2E2E2E2E2E2E2E2E2E2E2E2E2E2E2E2E2E2E2E2E2E2E2E2E2E2E2E2E2E2E2E2E2E2E2E2E2E2E2E2F5E2E2E2E2E2E2E2E2E2E2E2E2E2E2E2E2E2E2F5E2E2E2E2E2E2E2E2F5E2E2E2E2E2E2E2E2E2E2E2E2E2E2E2E2E2E2E2E2E2E2E2E2E2E2E2E2E2E2F5E2E2E2E2E2E2E2E2E2
310
E2E2E2E2E2E2E2E2F5E2E2F5F5E2E2F5E2E2E2E2E2E2E2E2E2E2E2E2E2E2E2E2E2F5E2E2E2E2E2E2E2E2E2E2E2E2E2E2E2E2E2E2E2E2E2E2E2E2E2E2E2E2E2E2E2E2E2E2F5E2E2E2E2E2E2E2E2E2E2E2E2E2E2E2E2E2E2E2E2E2E2E2E2E2E2E2E2E2E2E2E2E2E2E2E2E2E2E2E2E2E2F5E2E2E2E2E2E2E2E2E2E2E2E2E2E2E2
310
E2E2E2F5E2E2E2E2E2E2E2E2F5E2E2E2E2E2E2E2E2E2E2E2E2E2E2E2E2E2E2E2E2E2E2E2E2E2E2E2E2E2E2F5E2E2E2E2E2E2E2E2E2E2E2E2E2E2E2E2E2F5E2E2F5F5E2E2F5E2E2E2E2E2E2E2E2E2E2E2E2E2E2E2E2E2F5E2E2E2E2E2E2E2E2E2E2E2E2E2E2E2E2E2E2E2E2E2E2E2E2E2E2E2E2E2E2E2E2E2E2F5E2E2E2E2E2
310
E2E2E2E2E2E2E2E2E2E2E2E2E2E2E2E2E2E2E2E2E2E2E2E2E2E2E2E2E2E2E2E2E2E2E2E2E2F5E2E2E2E2E2E2E2E2E2E2E2E2E2E2E2E2E2E2F5E2E2E2E2E2E2E2E2F5E2E2E2E2E2E2E2E2E2E2E2E2E2E2E2E2E2E2E2E2E2E2E2E2E2E2E2E2E2E2F5E2E2E2E2E2E2E2E2E2E2E2E2E2E2E2E2E2F5E2E2F5F5E2E2F5E2E2E2E2E2
310
E2E2E2E2E2E2E2E2E2E2E2E2F5E2E2E2E2E2E2E2E2E2E2E2E2E2E2E2E2E2E2E2E2E2E2E2E2E2E2E2E2E2E2E2E2E2E2F5E2E2E2E2E2E2E2E2E2E2E2E2E2E2E2E2E2E2E2E2E2E2E2E2E2E2E2E2E2E2E2E2E2E2E2E2E2E2E2E2E2E2F5E2E2E2E2E2E2E2E2E2E2E2E2E2E2E2E2E2E2F5E2E2E2E2E2E2E2E2F5E2E2E2E2E2E2E2E2
310
E2E2E2E2E2E2E2E2E2E2E2E2E2E2E2E2E2E2E2E2E2E2F5E2E2E2E2E2E2E2E2E2E2E2E2E2E2E2E2E2F5E2E2F5F5E2E2F5E2E2E2E2E2E2E2E2E2E2E2E2E2E2E2E2E2F5E2E2E2E2E2E2E2E2E2E2E2E2E2E2E2E2E2E2E2E2E2E2E2E2E2E2E2E2E2E2E2E2E2E2F5E2E2E2E2E2E2E2E2E2E2E2E2E2E2E2E2E2E2E2E2E2E2E2E2E2E2
310
E2E2E2E2E2E2E2E2E2E2E2E2E2E2E2E2F5E2E2E2E2E2E2E2E2E2E2E2E2E2E2E2E2E2E2F5E2E2E2E2E2E2E2E2F5E2E2E2E2E2E2E2E2E2E2E2E2E2E2E2E2E2E2E2E2E2E2E2E2E2E2E2E2E2E2F5E2E2E2E2E2E2E2E2E2E2E2E2E2E2E2E2E2F5E2E2F5F5E2E2F5E2E2E2E2E2E2E2E2E2E2E2E2E2E2E2E2E2F5E2E2E2E2E2E2E2E2
310
E2E2E2E2E2E2E2E2E2E2E2E2E2E2E2E2E2E2E2E2E2E2F5F5F5F5F5E2E2E2E2E2E2E2E2E2E2E2E2E2E2E2E2E2E2E2E2E2E2E2E2E2E2E2E2E2E2E2E2E2E2E2E2E2E2E2E2E2E2F5E2E2E2E2E2E2E2E2E2E2E2E2E2E2E2E2E2E2F5E2E2E2E2E2E2E2E2F5E2E2E2E2E2E2E2E2E2E2E2E2E2E2E2E2E2E2E2E2E2E2E2E2E2E2E2E2E2
310
E2F5E2E2E2E2E2E2E2E2E2E2E2E2E2E2E2E2E2F5E2E2F5F5E2E2F5E2E2E2E2E2E2E2E2E2E2E2E2E2E2E2E2E2F5E2E2E2E2E2E2E2E2E2E2E2E2E2E2E2E2E2E2E2E2E2E2E2E2E2E2E2E2E2E2F5E2E2E2E2E2E2E2E2E2E2E2E2E2E2E2E2E2E2E2E2E2E2E2E2E2E2E2E2E2E2E2E2E2E2E2E2E2E2E2E2E2E2E2E2E2E2F5E2E2E2E2
310
E2E2E2E2E2E2E2E2E2E2E2E2E2E2F5E2E2E2E2E2E2E2E2F5E2E2E2E2E2E2E2E2E2E2E2E2E2E2E2E2E2E2E2E2E2E2E2E2E2E2E2E2E2E2F5E2E2E2E2E2E2E2E2E2E2E2E2E2E2E2E2E2F5E2E2F5F5E2E2F5E2E2E2E2E2E2E2E2E2E2E2E2E2E2E2E2E2F5E2E2E2E2E2E2E2E2E2E2E2E2E2E2E2E2E2E2E2E2E2E2E2E2E2E2E2E2E2
310
E2F5E2E2E2E2E2E2E2E2E2E2E2E2E2E2E2E2E2E2E2E2E2E2E2E2E2E2E2E2E2E2E2E2E2E2E2E2E2E2E2E2E2E2E2E2E2E2F5E2E2E2E2E2E2E2E2E2E2E2E2E2E2E2E2E2E2F5E2E2E2E2E2E2E2E2F5E2E2E2E2E2E2E2E2E2E2E2E2E2E2E2E2E2E2E2E2E2E2E2E2E2E2E2E2E2E2F5E2E2E2E2E2E2E2E2E2E2E2E2E2E2E2E2E2F5E2
310
E2F5F5E2E2E2E2E2E2E2E2E2E2E2E2E2E2E2E2E2E2E2E2F5E2E2E2E2E2E2E2E2E2E2E2E2E2E2E2E2E2E2E2E2E2E2E2E2E2E2E2E2E2E2F5E2E2E2E2E2E2E2E2E2E2E2E2E2E2E2E2E2E2E2E2E2E2E2E2E2E2E2E2E2E2E2E2E2E2E2E2E2E2E2E2E2E2E2E2E2E2F5E2E2E2E2E2E2E2E2E2E2E2E2E2E2E2E2E2E2F5E2E2E2E2E2E2
310
E2E2F5E2E2E2E2E2E2E2E2E2E2E2E2E2E2E2E2E2E2E2E2E2E2E2E2E2E2E2E2E2E2F5E2E2E2E2E2E2E2E2E2E2E2E2E2E2E2E2E2E2E2E2F5F5E2E2E2E2E2E2E2E2E2E2E2E2E2E2E2E2E2E2E2E2F5E2E2E2E2E2E2E2E2E2E2E2E2E2E2E2E2E2E2E2E2E2E2E2E2E2E2E2E2E2E2F5E2E2E2E2E2E2E2E2E2E2E2E2E2E2E2E2E2E2E2
310
E2E2E2E2E2E2E2E2E2E2E2E2E2E2E2E2E2E2E2E2E2E2E2E2E2E2E2F5E2E2E2E2E2E2E2E2E2E2E2E2E2E2E2E2E2E2F5E2E2E2E2E2E2E2E2F5E2E2E2E2E2E2E2E2E2E2E2E2E2E2E2E2E2E2E2E2E2E2E2E2E2E2E2E2E2E2F5E2E2E2E2E2E2E2E2E2E2E2E2E2E2E2E2E2E2E2E2F5F5E2E2E2E2E2E2E2E2E2E2E2E2E2E2E2E2E2E2
310
E2E2F5E2E2E2E2E2E2E2E2E2E2E2E2E2E2E2E2E2E2E2E2E2E2E2E2E2E2E2E2E2E2F5E2E2E2E2E2E2E2E2E2E2E2E2E2E2E2E2E2E2E2E2E2E2E2E2E2E2E2E2E2E2E2E2E2E2E2E2E2E2E2E2E2E2E2E2E2E2F5E2E2E2E2E2E2E2E2E2E2E2E2E2E2E2E2E2E2F5E2E2E2E2E2E2E2E2F5E2E2E2E2E2E2E2E2E2E2E2E2E2E2E2E2E2E2
310
E2E2E2E2E2E2E2E2E2E2E2E2F5E2E2E2E2E2E2E2E2E2E2E2E2E2E2E2E2E2E2E2E2F5F5E2E2E2E2E2E2E2E2E2E2E2E2E2E2E2E2E2E2E2E2F5E2E2E2E2E2E2E2E2E2E2E2E2E2E2E2E2E2E2E2E2E2E2E2E2E2E2E2E2E2E2F5E2E2E2E2E2E2E2E2E2E2E2E2E2E2E2E2E2E2E2E2E2E2E2E2E2E2E2E2E2E2E2E2E2E2E2E2E2E2E2E2
310
E2E2E2E2E2E2F5E2E2E2E2E2E2E2E2E2E2E2E2E2E2E2E2E2E2F5E2E2E2E2E2E2E2E2F5E2E2E2E2E2E2E2E2E2E2E2E2E2E2E2E2E2E2E2E2E2E2E2E2E2E2E2E2E2E2F5E2E2E2E2E2E2E2E2E2E2E2E2E2E2E2E2E2E2E2E2F5F5E2E2E2E2E2E2E2E2E2E2E2E2E2E2E2E2E2E2E2E2F5E2E2E2E2E2E2E2E2E2E2E2E2E2E2E2E2E2E2
310
E2E2E2E2E2E2E2E2E2E2E2E2F5E2E2E2E2E2E2E2E2E2E2E2E2E2E2E2E2E2E2E2E2E2E2E2E2E2E2E2E2E2E2E2E2E2E2E2E2E2E2E2E2E2E2E2E2E2E2F5E2E2E2E2E2E2E2E2E2E2E2E2E2E2E2E2E2E2F5E2E2E2E2E2E2E2E2F5E2E2E2E2E2E2E2E2E2E2E2E2E2E2E2E2E2E2E2E2E2E2E2E2E2E2E2E2E2E2F5E2E2E2E2E2E2E2E2
310
E2E2E2E2E2E2E2E2E2E2E2E2F5F5E2E2E2E2E2E2E2E2E2E2E2E2E2E2E2E2E2E2E2E2F5E2E2E2E2E2E2E2E2E2E2E2E2E2E2E2E2E2E2E2E2E2E2E2E2E2E2E2E2E2E2F5E2E2E2E2E2E2E2E2E2E2E2E2E2E2E2E2E2E2E2E2E2E2E2E2E2E2E2E2E2E2E2E2E2E2E2E2E2E2E2E2E2E2E2E2E2E2F5E2E2E2E2E2E2E2E2E2E2E2E2E2E2
310
E2E2E2E2F5E2E2E2E2E2E2E2E2F5E2E2E2E2E2E2E2E2E2E2E2E2E2E2E2E2E2E2E2E2E2E2E2E2E2E2E2E2E2E2F5E2E2E2E2E2E2E2E2E2E2E2E2E2E2E2E2E2E2E2E2F5F5E2E2E2E2E2E2E2E2E2E2E2E2E2E2E2E2E2E2E2E2F5E2E2E2E2E2E2E2E2E2E2E2E2E2E2E2E2E2E2E2E2E2E2E2E2E2E2E2E2E2E2F5E2E2E2E2E2E2E2E2
310
E2E2E2E2E2E2E2E2E2E2E2E2E2E2E2E2E2E2E2E2E2E2E2E2E2E2E2E2E2E2E2E2E2E2E2E2E2E2F5E2E2E2E2E2E2E2E2E2E2E2E2E2E2E2E2E2E2F5E2E2E2E2E2E2E2E2F5E2E2E2E2E2E2E2E2E2E2E2E2E2E2E2E2E2E2E2E2E2E2E2E2E2E2E2E2E2E2F5E2E2E2E2E2E2E2E2E2E2E2E2E2E2E2E2E2E2E2E2F5F5E2E2E2E2E2E2E2
310
E2E2E2E2E2E2E2E2E2E2E2E2E2F5E2E2E2E2E2E2E2E2E2E2E2E2E2E2E2E2E2E2E2E2E2E2E2E2E2E2E2E2E2E2F5E2E2E2E2E2E2E2E2E2E2E2E2E2E2E2E2E2E2E2E2E2E2E2E2E2E2E2E2E2E2E2E2E2E2E2E2E2E2E2E2E2E2E2E2E2E2F5E2E2E2E2E2E2E2E2E2E2E2E2E2E2E2E2E2E2F5E2E2E2E2E2E2E2E2F5E2E2E2E2E2E2E2
310
E2E2E2E2E2E2E2E2E2E2E2E2E2E2E2E2E2E2E2E2E2E2E2F5E2E2E2E2E2E2E2E2E2E2E2E2E2E2E2E2E2E2E2E2F5F5E2E2F5E2E2E2E2E2E2E2E2E2E2E2E2E2E2E2E2E2F5E2E2E2E2E2E2E2E2E2E2E2E2E2E2E2E2E2E2E2E2E2E2E2E2E2E2E2E2E2E2F5E2E2E2E2E2E2E2E2E2E2E2E2E2E2E2E2E2E2E2E2E2E2E2E2E2E2E2E2E2
310
E2E2E2E2E2E2E2E2E2E2E2E2E2E2E2E2E2F5E2E2E2E2E2E2E2E2E2E2E2E2E2E2E2E2E2E2F5E2E2E2E2E2E2E2E2F5E2E2E2E2E2E2E2E2E2E2E2E2E2E2E2E2E2E2E2E2E2E2E2E2E2E2E2E2E2E2F5E2E2E2E2E2E2E2E2E2E2E2E2E2E2E2E2E2F5E2E2F5F5E2E2F5E2E2E2E2E2E2E2E2E2E2E2E2E2E2E2E2E2F5E2E2E2E2E2E2E2
310
E2E2E2E2E2E2E2E2E2E2E2E2E2E2E2E2E2E2E2E2E2E2E2F5E2E2E2E2E2E2E2E2E2E2E2E2E2E2E2E2E2E2E2E2E2E2E2E2E2E2E2E2E2E2E2E2E2E2E2E2E2E2E2E2E2E2E2E2E2E2F5E2E2E2E2E2E2E2E2E2E2E2E2E2E2E2E2E2E2F5E2E2E2E2E2E2E2E2F5E2E2E2E2E2E2E2E2E2E2E2E2E2E2E2E2E2E2E2E2E2E2E2E2E2E2E2E2
310
E2E2F5E2E2E2E2E2E2E2E2E2E2E2E2E2E2E2E2E2F5E2E2F5F5E2E2F5E2E2E2E2E2E2E2E2E2E2E2E2E2E2E2E2E2F5E2E2E2E2E2E2E2E2E2E2E2E2E2E2E2E2E2E2E2E2E2E2E2E2E2E2E2E2E2E2F5E2E2E2E2E2E2E2E2E2E2E2E2E2E2E2E2E2E2E2E2E2E2E2E2E2E2E2E2E2E2E2E2E2E2E2E2E2E2E2E2E2E2E2E2E2E2F5E2E2E2
310
E2E2E2E2E2E2E2E2E2E2E2E2E2E2E2F5E2E2E2E2E2E2E2E2F5E2E2E2E2E2E2E2E2E2E2E2E2E2E2E2E2E2E2E2E2E2E2E2E2E2E2E2E2E2E2F5E2E2E2E2E2E2E2E2E2E2E2E2E2E2E2E2E2F5E2E2F5F5E2E2F5E2E2E2E2E2E2E2E2E2E2E2E2E2E2E2E2E2F5E2E2E2E2E2E2E2E2E2E2E2E2E2E2E2E2E2E2E2E2E2E2E2E2E2E2E2E2
310
E2E2F5E2E2E2E2E2E2E2E2E2E2E2E2E2E2E2E2E2E2E2E2E2E2E2E2E2E2E2E2E2E2E2E2E2E2E2E2E2E2E2E2E2E2E2E2E2E2F5E2E2E2E2E2E2E2E2E2E2E2E2E2E2E2E2E2E2F5E2E2E2E2E2E2E2E2F5E2E2E2E2E2E2E2E2E2E2E2E2E2E2E2E2E2E2E2E2E2E2E2E2E2E2E2E2E2E2F5E2E2E2E2E2E2E2E2E2E2E2E2E2E2E2E2E2F5
310
E2E2F5F5E2E2F5E2E2E2E2E2E2E2E2E2E2E2E2E2E2E2E2E2F5E2E2E2E2E2E2E2E2E2E2E2E2E2E2E2E2E2E2E2E2E2E2E2E2E2E2E2E2E2E2F5E2E2E2E2E2E2E2E2E2E2E2E2E2E2E2E2E2E2E2E2E2E2E2E2E2E2E2E2E2E2E2E2E2E2E2E2E2E2E2E2E2E2E2E2E2E2F5E2E2E2E2E2E2E2E2E2E2E2E2E2E2E2E2E2E2F5E2E2E2E2E2
310
E2E2E2F5E2E2E2E2E2E2E2E2E2E2E2E2E2E2E2E2E2E2E2E2E2E2E2E2E2E2E2E2E2E2F5E2E2E2E2E2E2E2E2E2E2E2E2E2E2E2E2E2F5E2E2F5F5E2E2F5E2E2E2E2E2E2E2E2E2E2E2E2E2E2E2E2E2F5E2E2E2E2E2E2E2E2E2E2E2E2E2E2E2E2E2E2E2E2E2E2E2E2E2E2E2E2E2E2F5E2E2E2E2E2E2E2E2E2E2E2E2E2E2E2E2E2E2
310
E2E2E2E2E2E2E2E2E2E2E2E2E2E2E2E2E2E2E2E2E2E2E2E2E2E2E2E2F5E2E2E2E2E2E2E2E2E2E2E2E2E2E2E2E2E2E2F5E2E2E2E2E2E2E2E2F5E2E2E2E2E2E2E2E2E2E2E2E2E2E2E2E2E2E2E2E2E2E2E2E2E2E2E2E2E2E2F5E2E2E2E2E2E2E2E2E2E2E2E2E2E2E2E2E2F5E2E2F5F5E2E2F5E2E2E2E2E2E2E2E2E2E2E2E2E2E2
310
E2E2E2F5E2E2E2E2E2E2E2E2E2E2E2E2E2E2E2E2E2E2E2E2E2E2E2E2E2E2E2E2E2E2F5E2E2E2E2E2E2E2E2E2E2E2E2E2E2E2E2E2E2E2E2E2E2E2E2E2E2E2E2E2E2E2E2E2E2E2E2E2E2E2E2E2E2E2E2E2E2F5E2E2E2E2E2E2E2E2E2E2E2E2E2E2E2E2E2E2F5E2E2E2E2E2E2E2E2F5E2E2E2E2E2E2E2E2E2E2E2E2E2E2E2E2E2
310
E2E2E2E2E2E2E2E2E2E2E2E2E2F5E2E2E2E2E2E2E2E2E2E2E2E2E2E2E2E2E2F5E2E2F5F5E2E2F5E2E2E2E2E2E2E2E2E2E2E2E2E2E2E2E2E2F5E2E2E2E2E2E2E2E2E2E2E2E2E2E2E2E2E2E2E2E2E2E2E2E2E2E2E2E2E2E2F5E2E2E2E2E2E2E2E2E2E2E2E2E2E2E2E2E2E2E2E2E2E2E2E2E2E2E2E2E2E2E2E2E2E2E2E2E2E2E2
310
E2E2E2E2E2E2E2F5E2E2E2E2E2E2E2E2E2E2E2E2E2E2E2E2E2E2F5E2E2E2E2E2E2E2E2F5E2E2E2E2E2E2E2E2E2E2E2E2E2E2E2E2E2E2E2E2E2E2E2E2E2E2E2E2E2E2F5E2E2E2E2E2E2E2E2E2E2E2E2E2E2E2E2E2F5E2E2F5F5E2E2F5E2E2E2E2E2E2E2E2E2E2E2E2E2E2E2E2E2F5E2E2E2E2E2E2E2E2E2E2E2E2E2E2E2E2E2
310
E2E2E2E2E2E2E2E2E2E2E2E2E2F5E2E2E2E2E2E2E2E2E2E2E2E2E2E2E2E2E2E2E2E2E2E2E2E2E2E2E2E2E2E2E2E2E2E2E2E2E2E2E2E2E2E2E2E2E2E2F5E2E2E2E2E2E2E2E2E2E2E2E2E2E2E2E2E2E2F5E2E2E2E2E2E2E2E2F5E2E2E2E2E2E2E2E2E2E2E2E2E2E2E2E2E2E2E2E2E2E2E2E2E2E2E2E2E2E2F5E2E2E2E2E2E2E2
310
E2E2E2E2E2E2E2E2E2E2F5E2E2F5F5E2E2F5E2E2E2E2E2E2E2E2E2E2E2E2E2E2E2E2E2F5E2E2E2E2E2E2E2E2E2E2E2E2E2E2E2E2E2E2E2E2E2E2E2E2E2E2E2E2E2E2F5E2E2E2E2E2E2E2E2E2E2E2E2E2E2E2E2E2E2E2E2E2E2E2E2E2E2E2E2E2E2E2E2E2E2E2E2E2E2E2E2E2E2E2E2E2E2F5E2E2E2E2E2E2E2E2E2E2E2E2E2
310
E2E2E2E2E2F5E2E2E2E2E2E2E2E2F5E2E2E2E2E2E2E2E2E2E2E2E2E2E2E2E2E2E2E2E2E2E2E2E2E2E2E2E2E2E2F5E2E2E2E2E2E2E2E2E2E2E2E2E2E2E2E2E2F5E2E2F5F5E2E2F5E2E2E2E2E2E2E2E2E2E2E2E2E2E2E2E2E2F5E2E2E2E2E2E2E2E2E2E2E2E2E2E2E2E2E2E2E2E2E2E2E2E2E2E2E2E2E2E2F5E2E2E2E2E2E2E2
310
E2E2E2E2E2E2E2E2E2E2E2E2E2E2E2E2E2E2E2E2E2E2E2E2E2E2E2E2E2E2E2E2E2E2E2E2E2E2E2F5E2E2E2E2E2E2E2E2E2E2E2E2E2E2E2E2E2E2F5E2E2E2E2E2E2E2E2F5E2E2E2E2E2E2E2E2E2E2E2E2E2E2E2E2E2E2E2E2E2E2E2E2E2E2E2E2E2E2F5E2E2E2E2E2E2E2E2E2E2E2E2E2E2E2E2E2F5E2E2F5F5E2E2F5E2E2E2
310
E2E2E2E2E2E2E2E2E2E2E2E2E2E2F5E2E2E2E2E2E2E2E2E2E2E2E2E2E2E2E2E2E2E2E2E2E2E2E2E2E2E2E2E2E2F5E2E2E2E2E2E2E2E2E2E2E2E2E2E2E2E2E2E2E2E2E2E2E2E2E2E2E2E2E2E2E2E2E2E2E2E2E2E2E2E2E2E2E2E2E2E2F5E2E2E2E2E2E2E2E2E2E2E2E2E2E2E2E2E2E2F5E2E2E2E2E2E2E2E2F5E2E2E2E2E2E2
310
E2E2E2E2E2E2E2E2E2E2E2E2E2E2E2E2E2E2E2E2E2E2E2E2F5E2E2E2E2E2E2E2E2E2E2E2E2E2E2E2E2E2F5E2E2F5F5E2E2F5E2E2E2E2E2E2E2E2E2E2E2E2E2E2E2E2E2F5E2E2E2E2E2E2E2E2E2E2E2E2E2E2E2E2E2E2E2E2E2E2E2E2E2E2E2E2E2E2F5E2E2E2E2E2E2E2E2E2E2E2E2E2E2E2E2E2E2E2E2E2E2E2E2E2E2E2E2
310
E2E2E2E2E2E2E2E2E2E2E2E2E2E2E2E2E2E2F5E2E2E2E2E2E2E2E2E2E2E2E2E2E2E2E2E2E2F5E2E2E2E2E2E2E2E2F5E2E2E2E2E2E2E2E2E2E2E2E2E2E2E2E2E2E2E2E2E2E2E2E2E2E2E2E2E2E2F5E2E2E2E2E2E2E2E2E2E2E2E2E2E2E2E2E2F5E2E2F5F5E2E2F5E2E2E2E2E2E2E2E2E2E2E2E2E2E2E2E2E2F5E2E2E2E2E2E2
310
E2E2E2E2E2E2E2E2E2E2E2E2E2E2E2E2E2E2E2E2E2E2E2E2F5E2E2E2E2E2E2E2E2E2E2E2E2E2E2E2E2E2E2E2E2E2E2E2E2E2E2E2E2E2E2E2E2E2E2E2E2E2E2E2E2E2E2E2E2E2E2F5E2E2E2E2E2E2E2E2E2E2E2E2E2E2E2E2E2E2F5E2E2E2E2E2E2E2E2F5E2E2E2E2E2E2E2E2E2E2E2E2E2E2E2E2E2E2E2E2E2E2E2E2E2E2E2
310
E2E2E2F5E2E2E2E2E2E2E2E2E2E2E2E2E2E2E2E2E2F5E2E2F5F5E2E2F5E2E2E2E2E2E2E2E2E2E2E2E2E2E2E2E2E2F5E2E2E2E2E2E2E2E2E2E2E2E2E2E2E2E2E2E2E2E2E2E2E2E2E2E2E2E2E2E2F5F5F5F5F5F5F5F5F5F5F5F5F5F5F5F5F5F5F5F5F5F5F5F5F5F5F5F5F5F5F5F5F5F5F5F5F5F5E2E2E2E2E2E2E2E2E2F5E2E2
310
E2E2E2E2E2E2E2E2E2E2E2E2E2E2E2E2F5E2E2E2E2E2E2E2E2F5E2E2E2E2E2E2E2E2E2E2E2E2E2E2E2E2E2E2E2E2E2E2E2E2E2E2E2E2E2E2F5E2E2E2E2E2E2E2E2E2E2E2E2E2E2E2E2E2F5E2E2F5F5E2E2E2E2E2E2E2E2E2E2E2E2E2E2E2E2E2E2E2E2F5E2E2E2E2E2E2E2E2E2E2E2E2E2E2E2E2E2E2E2E2E2E2E2E2E2E2E2
310
E2E2E2E2E2E2E2E2E2E2E2E2E2E2E2E2E2E2E2E2E2E2E2E2E2E2E2E2E2E2E2E2E2E2E2E2E2E2E2E2F5E2E2E2E2E2E2E2E2E2F5E2E2E2E2E2E2E2E2E2E2E2E2E2E2E2E2E2E2F5E2E2E2E2E2E2E2E2F5E2E2E2E2E2E2E2E2E2E2E2E2E2E2E2E2E2E2E2E2E2E2E2E2E2E2E2E2E2E2F5E2E2E2E2E2E2E2E2E2E2E2E2E2E2E2E2E2
310
E2E2E2F5F5E2E2E2E2E2E2E2E2E2E2E2E2E2E2E2E2E2E2E2E2F5E2E2E2E2E2E2E2E2E2E2E2E2E2E2E2E2E2E2E2E2E2E2E2E2E2E2E2E2E2E2E2E2E2E2E2E2E2E2E2E2E2E2E2E2E2E2E2E2E2E2E2E2E2E2E2E2E2E2E2E2E2E2E2E2E2E2E2F5E2E2E2E2E2E2E2E2E2F5E2E2E2E2E2E2E2E2E2E2E2E2E2E2E2E2E2E2F5E2E2E2E2
310
E2E2E2E2F5E2E2E2E2E2E2E2E2E2E2E2E2E2E2E2E2E2E2E2E2E2E2E2E2E2E2E2E2E2E2F5E2E2E2E2E2E2E2E2E2E2E2E2E2E2E2E2E2E2E2E2F5F5E2E2E2E2E2E2E2E2E2E2E2E2E2E2E2E2E2E2E2E2F5E2E2E2E2E2E2E2E2E2E2E2E2E2E2E2E2E2E2E2E2E2E2E2E2E2E2E2E2E2E2E2E2E2E2E2E2E2E2E2E2E2E2E2E2E2E2E2E2
310
E2E2E2E2E2E2E2E2E2E2E2E2E2E2E2E2E2E2E2F5E2E2E2E2E2E2E2E2E2F5E2E2E2E2E2E2E2E2E2E2E2E2E2E2E2E2E2E2F5E2E2E2E2E2E2E2E2F5E2E2E2E2E2E2E2E2E2E2E2E2E2E2E2E2E2E2E2E2E2E2E2E2E2E2E2E2E2E2F5E2E2E2E2E2E2E2E2E2E2E2E2E2E2E2E2E2E2E2E2F5F5E2E2E2E2E2E2E2E2E2E2E2E2E2E2E2E2
310
E2E2E2E2F5E2E2E2E2E2E2E2E2E2E2E2E2E2E2E2E2E2E2E2E2E2E2E2E2E2E2E2E2E2E2E2E2E2E2E2E2E2E2E2E2E2E2E2E2E2E2E2E2E2E2E2E2E2E2E2E2E2E2E2E2E2E2E2E2E2E2E2F5E2E2E2E2E2E2E2E2E2F5E2E2E2E2E2E2E2E2E2E2E2E2E2E2E2E2E2E2F5E2E2E2E2E2E2E2E2F5E2E2E2E2E2E2E2E2E2E2E2E2E2E2E2E2
310
E2E2E2E2E2E2E2E2E2E2E2E2E2E2F5E2E2E2E2E2E2E2E2E2E2E2E2E2E2E2E2E2E2E2E2F5F5E2E2E2E2E2E2E2E2E2E2E2E2E2E2E2E2E2E2E2E2F5F5F5F5F5F5F5F5F5F5F5F5F5F5F5F5F5F5F5F5F5F5F5F5F5F5F5F5F5F5F5F5F5F5F5F5F5F5F5F5F5F5F5F5F5F5F5F5F5F5F5F5F5F5F5F5F5F5F5F5F5F5F5F5F5F5F5F5F5F5
310
F5F5F5F5F5F5F5F5F5F5F5F5F5F5F5F5F5F5F5F5F5F5F5F5F5F5F5F5F5F5F5F5F5F5F5F5F5F5F5F5F5F5F5F5F5F5F5F5F5F5F5F5F5F5F5F5F5F5F5F5F5F5F5F5F5F5F5F5E2E2E2E2E2E2E2E2E2E2E2E2E2E2E2E2E2E2E2E2F5F5E2E2E2E2E2E2E2E2E2E2E2E2E2E2E2E2E2E2E2E2E2E2E2E2E2E2E2E2E2E2E2E2E2E2E2E2E2
310
E2E2E2E2E2E2E2E2E2E2E2E2E2E2E2E2E2E2E2E2E2E2E2E2E2E2E2E2E2E2E2E2E2E2E2E2E2E2E2E2E2E2E2E2E2E2E2E2E2E2E2E2E2E2E2E2E2E2E2E2E2E2E2E2E2E2E2E2E2E2E2E2E2E2E2E2E2E2E2E2E2E2E2E2E2E2E2E2E2E2E2E2E2E2E2E2E2E2E2E2E2E2E2E2E2E2E2E2E2E2E2E2E2E2E2E2E2E2E2E2E2E2E2E2E2E2E2
310
E2E2E2E2E2E2E2E2E2E2E2E2E2E2F5F5E2E2E2E2E2E2E2E2E2E2E2E2E2E2E2E2E2E2E2E2E2E2E2E2E2E2E2E2E2E2E2E2E2E2E2E2E2E2E2E2E2E2E2E2E2E2E2E2E2E2E2E2E2E2E2E2E2E2E2E2E2E2E2E2E2E2E2E2E2E2E2E2E2E2E2E2E2E2E2E2E2E2E2E2E2E2E2E2E2E2E2E2E2E2E2E2E2E2E2E2E2E2E2E2E2E2E2E2E2E2E2
310
E2E2E2E2E2E2E2E2E2E2E2E2E2E2E2E2E2E2E2E2E2E2E2E2E2E2E2E2E2E2E2E2E2E2E2E2E2E2E2E2E2E2E2E2E2E2E2E2E2E2E2E2E2E2E2E2E2E2E2E2E2E2E2E2E2E2E2F5F5E2E2E2E2E2E2E2E2E2E2E2E2E2E2E2E2E2E2E2E2E2E2E2E2E2E2E2E2E2E2E2E2E2E2E2E2E2E2E2E2E2E2E2E2E2E2E2E2E2E2E2E2E2E2E2E2E2E2
310
E2E2E2E2E2E2E2E2E2E2E2E2E2E2E2E2E2E2E2E2E2E2E2E2E2E2E2E2E2E2E2E2E2E2E2E2E2E2E2E2E2E2E2E2E2E2E2E2E2E2E2E2E2E2E2E2E2E2E2E2E2E2E2E2E2E2E2E2E2E2E2E2E2E2E2E2E2E2E2E2E2E2E2E2E2E2E2E2E2E2E2E2E2E2E2E2E2E2E2E2E2E2E2E2E2E2E2E2E2E2E2E2E2E2E2E2E2E2E2E2F5F5E2E2E2E2E2
310
E2E2E2E2E2E2E2E2E2E2E2E2E2E2E2E2E2E2E2E2E2E2E2E2E2E2E2E2E2E2E2E2E2E2E2E2E2E2E2E2E2E2E2E2E2E2E2E2E2E2E2E2E2E2E2E2E2E2E2E2E2E2E2E2E2E2E2E2E2E2E2E2E2E2E2E2E2E2E2E2E2E2E2E2E2E2E2E2E2E2E2E2E2E2E2E2E2E2E2E2E2E2E2E2E2E2E2E2E2E2E2E2E2E2E2E2E2E2E2E2E2E2E2E2E2E2E2
310
E2E2E2E2E2E2E2E2E2E2E2E2E2E2E2E2E2E2E2E2E2E2E2E2E2E2E2E2E2E2E2E2E2E2E2E2E2E2E2E2E2E2E2E2E2E2F5F5E2E2F5E2E2E2E2E2E2E2E2E2E2E2E2E2E2E2E2E2E2E2E2E2E2E2E2E2E2E2E2E2E2E2E2E2E2E2E2E2E2E2E2E2E2E2E2E2E2E2E2E2E2E2E2E2E2E2E2E2E2E2E2E2E2E2E2E2E2E2E2E2E2E2E2E2E2E2E2
310
E2E2E2E2E2E2E2E2E2E2E2E2E2E2E2E2E2E2E2E2E2E2E2E2E2E2E2E2E2E2E2E2E2E2E2E2E2E2E2E2E2E2E2E2E2E2E2E2E2E2E2E2E2E2E2E2E2E2E2E2E2E2E2E2E2E2E2E2E2E2E2E2E2E2E2E2E2E2E2E2E2E2E2E2E2E2E2E2E2E2E2E2E2E2E2E2F5E2E2F5F5E2E2F5E2E2E2E2E2E2E2E2E2E2E2E2E2E2E2E2E2E2E2E2E2E2E2
310
E2E2E2E2E2E2E2E2E2E2E2E2E2E2E2E2E2E2E2E2E2E2E2E2E2E2E2E2E2E2E2E2E2E2E2E2E2E2E2E2E2E2E2E2E2E2E2E2E2E2E2E2E2E2E2E2E2E2E2E2E2E2E2E2E2E2E2E2E2E2E2E2E2E2E2E2E2E2E2E2E2E2E2E2E2E2E2E2E2E2E2E2E2E2E2E2E2E2E2E2E2E2E2E2E2E2E2E2E2E2E2E2E2E2E2E2E2E2E2E2E2E2E2E2E2E2E2
310
E2E2E2E2E2E2E2E2E2E2E2E2E2E2E2E2E2E2E2E2E2E2F5E2E2F5F5E2E2F5E2E2E2E2E2E2E2E2E2E2E2E2E2E2E2E2E2E2E2E2E2E2E2E2E2E2E2E2E2E2E2E2E2E2E2E2E2E2E2E2E2E2E2E2E2E2E2E2E2E2E2E2E2E2E2E2E2E2E2E2E2E2E2E2E2E2E2E2E2E2E2E2E2E2E2E2E2E2E2E2E2E2E2E2E2E2E2E2E2E2E2E2E2E2E2E2E2
310
E2E2E2E2E2E2E2E2E2E2E2E2E2E2E2E2E2E2E2E2E2E2E2E2E2E2E2E2E2E2E2E2E2E2E2E2E2E2E2E2E2E2E2E2E2E2E2E2E2E2E2E2E2E2E2E2E2E2E2E2E2E2E2E2E2E2E2E2E2E2E2E2E2E2E2F5E2E2F5F5E2E2F5E2E2E2E2E2E2E2E2E2E2E2E2E2E2E2E2E2E2E2E2E2E2E2E2E2E2E2E2E2E2E2E2E2E2E2E2E2E2E2E2E2E2E2E2
310
E2E2E2E2E2E2E2E2E2E2E2E2E2E2E2E2E2E2E2E2E2E2E2E2E2E2E2E2E2E2E2E2E2E2E2E2E2E2E2E2E2E2E2E2E2E2E2E2E2E2E2E2E2E2E2E2E2E2E2E2E2E2E2E2E2E2E2E2E2E2E2E2E2E2E2E2E2E2E2E2E2E2E2E2E2E2E2E2E2E2E2E2E2E2E2E2E2E2E2E2E2E2E2E2E2E2E2E2E2E2E2E2E2E2E2E2E2E2E2E2E2E2E2E2E2E2E2
310
E2F5E2E2F5F5E2E2F5E2E2E2E2E2E2E2E2E2E2E2E2E2E2E2E2E2E2E2E2E2E2E2E2E2E2E2E2E2E2E2E2E2E2E2E2E2E2E2E2E2E2E2E2E2E2E2E2E2E2E2E2E2E2E2E2E2E2E2E2E2E2E2E2E2E2E2E2E2E2E2E2E2E2E2E2E2E2E2E2E2E2E2E2E2E2E2E2E2E2E2E2E2E2E2E2E2E2E2E2E2E2E2E2E2E2E2E2E2E2E2E2E2E2E2E2E2E2
310
E2E2E2E2E2E2E2E2E2E2E2E2E2E2E2E2E2E2E2E2E2E2E2E2E2E2E2E2E2E2E2E2E2E2E2E2E2E2E2E2E2E2E2E2E2E2E2E2E2E2E2E2E2E2F5E2E2F5F5E2E2F5E2E2E2E2E2E2E2E2E2E2E2E2E2E2E2E2E2E2E2E2E2E2E2E2E2E2E2E2E2E2E2E2E2E2E2E2E2E2E2E2E2E2E2E2E2E2E2E2E2E2E2E2E2E2E2E2E2E2E2E2E2E2E2E2E2
310
E2E2E2E2E2E2E2E2E2E2E2E2E2E2E2E2E2E2E2E2E2E2E2E2E2E2E2E2E2E2E2E2E2E2E2E2E2E2E2E2E2E2E2E2E2E2E2E2E2E2E2E2E2E2E2E2E2E2E2E2E2E2E2E2E2E2E2E2E2E2E2E2E2E2E2E2E2E2E2E2E2E2E2E2E2E2E2E2E2E2E2E2E2E2E2E2E2E2E2E2E2E2E2E2E2E2E2F5E2E2F5F5E2E2F5E2E2E2E2E2E2E2E2E2E2E2E2
310
E2E2E2E2E2E2E2E2E2E2E2E2E2E2E2E2E2E2E2E2E2E2E2E2E2E2E2E2E2E2E2E2E2E2E2E2E2E2E2E2E2E2E2E2E2E2E2E2E2E2E2E2E2E2E2E2E2E2E2E2E2E2E2E2E2E2E2E2E2E2E2E2E2E2E2E2E2E2E2E2E2E2E2E2E2E2E2E2E2E2E2E2E2E2E2E2E2E2E2E2E2E2E2E2E2E2E2E2E2E2E2E2E2E2E2E2E2E2E2E2E2E2E2E2E2E2E2
310
E2E2E2E2E2E2E2E2E2E2E2E2E2E2E2E2E2E2E2E2E2E2E2E2E2E2E2E2E2E2E2E2E2F5E2E2F5F5E2E2F5F5F5F5F5F5F5F5E2E2E2E2E2E2E2E2E2F5F5F5F5F5F5F5F5F5F5F5F5F5F5F5F5E2E2E2E2E2E2E2E2E2F5F5F5F5F5F5F5F5F5F5F5F5F5F5F5F5E2E2E2E2E2E2E2E2E2F5F5F5F5F5F5F5F5F5F5F5F5F5F5F5F5E2E2E2E2
310
E2E2E2E2F5F5F5F5F5F5F5F5F5F5F5F5F5F5F5F5E2E2E2E2E2E2E2E2E2F5F5F5F5F5F5F5F5F5F5F5F5F5F5F5F5E2E2E2E2E2E2E2E2E2F5F5F5F5F5F5F5F5F5F5F5F5F5F5F5F5E2E2E2E2E2E2E2E2E2F5F5F5F5F5F5F5F5E2E2F5F5E2E2E2E2E2E2E2E2E2E2E2E2E2E2E2E2E2E2E2E2E2E2E2E2E2E2E2E2E2E2E2E2E2E2E2E2
310
E2E2E2E2E2E2E2E2E2E2E2E2E2E2E2E2E2E2E2E2E2E2E2E2E2E2E2E2E2E2E2E2E2E2E2E2E2E2E2E2E2E2E2E2E2E2E2E2E2E2E2E2E2E2E2E2E2E2E2E2E2E2E2E2E2E2E2E2E2E2E2E2E2E2E2E2E2E2E2E2E2E2E2E2E2E2E2E2E2E2E2E2E2E2E2E2E2E2E2E2E2E2E2E2E2E2E2E2E2E2E2E2E2E2E2E2E2E2E2E2E2E2E2E2E2E2E2
310
E2E2E2E2E2E2E2E2E2E2E2E2E2E2E2F5F5E2E2E2E2E2E2E2E2E2E2E2E2E2E2E2E2E2E2E2E2E2E2E2E2E2E2E2E2E2E2E2E2E2E2E2E2E2E2E2E2E2E2E2E2E2E2E2E2E2E2E2E2E2E2E2E2E2E2E2E2E2E2E2E2E2E2E2E2E2E2E2E2E2E2E2E2E2E2E2E2E2E2E2E2E2E2E2E2E2E2E2E2E2E2E2E2E2E2E2E2E2E2E2E2E2E2E2E2E2E2
310
E2E2E2E2E2E2E2E2E2E2E2E2E2E2E2E2E2E2E2E2E2E2E2E2E2E2E2E2E2E2E2E2E2E2E2E2E2E2E2E2E2E2E2E2E2E2E2E2E2E2E2E2E2E2E2E2E2E2E2E2E2E2E2E2E2E2E2E2F5F5F5F5F5F5F5F5F5F5F5F5F5F5F5F5F5F5F5F5F5F5F5F5F5F5F5F5F5F5F5F5F5F5F5F5F5F5F5F5F5F5F5F5F5F5F5F5F5F5F5F5F5F5F5F5F5F5F5
310
F5F5F5F5F5F5F5F5F5F5F5F5F5F5F5F5F5F5F5F5F5F5F5F5F5F5F5F5F5F5F5F5F5F5F5F5F5F5F5F5F5F5F5F5F5F5F5F5F5F5F5F5F5F5F5F5F5F5F5F5F5F5F5F5F5F5F5F5F5F5F5F5F5F5F5F5F5F5F5F5F5F5F5F5F5F5F5F5F5F5F5F5F5F5F5F5F5F5F5F5F5F5F5F5F5F5F5F5F5F5F5F5F5F5F5F5F5F5F5F5F5F5EFEFEFEFEF
310
EFEFEFEFEFEFEFEFEFEFEFEFEFEFEFEFEFEFEFEFEFEFEFEFEFEFEFEFEFEFEFEFEFEFEFEFEFEFEFEFEFEFEFEFEFEFEFEFEFEFEFEFEFEFEFEFEFEFEFEFEFEFEFEFEFEFEFEFEFEFEFEFEFEFEFEFEFEFEFEFEFEFEFEFEFEFEFEFEFEFEFEFEFEFEFEFEFEFEFEFEFEFEFEFEFEFEFEFEFEFEFEFEFEFEFEFEFEFEFEFEFEFEFEFEFEFEF
310
EFEFEFEFEFEFEFEFEFEFEFEFEFEFEFEFEFEFEFEFEFEFEFEFEFEFEFEFEFEFEFEFEFEFEFEFEFEFEFEFEFEFEFEFEFEFEFEF
  0
XRECORD
  5
166A0B99A42C6BB
102
{ACAD_REACTORS
330
166A0B99A42C6BA
102
}
330
166A0B99A42C6BA
100
AcDbXrecord
280
     1
102
SHADEPLOT
 70
     0
102
SHADEPLOTRESLEVEL
 70
     2
102
SHADEPLOTCUSTOMDPI
 70
   300
  0
XRECORD
  5
166A0B99A42C5CB
102
{ACAD_REACTORS
330
166A0B99A42C5CA
102
}
330
166A0B99A42C5CA
100
AcDbXrecord
280
     1
102
MATERIAL
148
0.0
149
0.0
149
0.0
 93
        0
 94
      127
282
     0
 72
     1
 77
     1
171
     1
175
     1
179
     1
273
     0
  0
XRECORD
  5
166A0B99A42C5C9
102
{ACAD_REACTORS
330
166A0B99A42C5C8
102
}
330
166A0B99A42C5C8
100
AcDbXrecord
280
     1
102
MATERIAL
148
0.0
149
0.0
149
0.0
 93
        0
 94
      127
282
     0
 72
     1
 77
     1
171
     1
175
     1
179
     1
273
     0
  0
XRECORD
  5
166A0B99A42C5CD
102
{ACAD_REACTORS
330
166A0B99A42C5CC
102
}
330
166A0B99A42C5CC
100
AcDbXrecord
280
     1
102
MATERIAL
148
0.0
149
0.0
149
0.0
 93
        0
 94
      127
282
     0
 72
     1
 77
     1
171
     1
175
     1
179
     1
273
     0
  0
CELLSTYLEMAP
  5
166A0B99A42C6B7
102
{ACAD_REACTORS
330
166A0B99A42C6B6
102
}
330
166A0B99A42C6B6
100
AcDbCellStyleMap
 90
        3
300
CELLSTYLE
  1
TABLEFORMAT_BEGIN
 90
        5
170
     1
 91
        0
 92
    32768
 62
   257
 93
        1
300
CONTENTFORMAT
  1
CONTENTFORMAT_BEGIN
 90
        0
 91
        0
 92
      512
 93
        0
300

 40
0.0
140
1.0
 94
        5
 62
     0
340
166A0B99A429BA6
144
0.25
309
CONTENTFORMAT_END
171
     0
 94
        6
 95
        1
302
GRIDFORMAT
  1
GRIDFORMAT_BEGIN
 90
        0
 91
        1
 62
     0
 92
       -2
340
0
 93
        0
 40
0.045
309
GRIDFORMAT_END
 95
        2
302
GRIDFORMAT
  1
GRIDFORMAT_BEGIN
 90
        0
 91
        1
 62
     0
 92
       -2
340
0
 93
        0
 40
0.045
309
GRIDFORMAT_END
 95
        4
302
GRIDFORMAT
  1
GRIDFORMAT_BEGIN
 90
        0
 91
        1
 62
     0
 92
       -2
340
0
 93
        0
 40
0.045
309
GRIDFORMAT_END
 95
        8
302
GRIDFORMAT
  1
GRIDFORMAT_BEGIN
 90
        0
 91
        1
 62
     0
 92
       -2
340
0
 93
        0
 40
0.045
309
GRIDFORMAT_END
 95
       16
302
GRIDFORMAT
  1
GRIDFORMAT_BEGIN
 90
        0
 91
        1
 62
     0
 92
       -2
340
0
 93
        0
 40
0.045
309
GRIDFORMAT_END
 95
       32
302
GRIDFORMAT
  1
GRIDFORMAT_BEGIN
 90
        0
 91
        1
 62
     0
 92
       -2
340
0
 93
        0
 40
0.045
309
GRIDFORMAT_END
309
TABLEFORMAT_END
  1
CELLSTYLE_BEGIN
 90
        1
 91
        1
300
_TITLE
309
CELLSTYLE_END
300
CELLSTYLE
  1
TABLEFORMAT_BEGIN
 90
        5
170
     1
 91
        0
 92
        0
 62
   257
 93
        1
300
CONTENTFORMAT
  1
CONTENTFORMAT_BEGIN
 90
        0
 91
        0
 92
      512
 93
        0
300

 40
0.0
140
1.0
 94
        5
 62
     0
340
166A0B99A429BA6
144
0.18
309
CONTENTFORMAT_END
171
     0
 94
        6
 95
        1
302
GRIDFORMAT
  1
GRIDFORMAT_BEGIN
 90
        0
 91
        1
 62
     0
 92
       -2
340
0
 93
        0
 40
0.045
309
GRIDFORMAT_END
 95
        2
302
GRIDFORMAT
  1
GRIDFORMAT_BEGIN
 90
        0
 91
        1
 62
     0
 92
       -2
340
0
 93
        0
 40
0.045
309
GRIDFORMAT_END
 95
        4
302
GRIDFORMAT
  1
GRIDFORMAT_BEGIN
 90
        0
 91
        1
 62
     0
 92
       -2
340
0
 93
        0
 40
0.045
309
GRIDFORMAT_END
 95
        8
302
GRIDFORMAT
  1
GRIDFORMAT_BEGIN
 90
        0
 91
        1
 62
     0
 92
       -2
340
0
 93
        0
 40
0.045
309
GRIDFORMAT_END
 95
       16
302
GRIDFORMAT
  1
GRIDFORMAT_BEGIN
 90
        0
 91
        1
 62
     0
 92
       -2
340
0
 93
        0
 40
0.045
309
GRIDFORMAT_END
 95
       32
302
GRIDFORMAT
  1
GRIDFORMAT_BEGIN
 90
        0
 91
        1
 62
     0
 92
       -2
340
0
 93
        0
 40
0.045
309
GRIDFORMAT_END
309
TABLEFORMAT_END
  1
CELLSTYLE_BEGIN
 90
        2
 91
        1
300
_HEADER
309
CELLSTYLE_END
300
CELLSTYLE
  1
TABLEFORMAT_BEGIN
 90
        5
170
     1
 91
        0
 92
        0
 62
   257
 93
        1
300
CONTENTFORMAT
  1
CONTENTFORMAT_BEGIN
 90
        0
 91
        0
 92
      512
 93
        0
300

 40
0.0
140
1.0
 94
        2
 62
     0
340
166A0B99A429BA6
144
0.18
309
CONTENTFORMAT_END
171
     0
 94
        6
 95
        1
302
GRIDFORMAT
  1
GRIDFORMAT_BEGIN
 90
        0
 91
        1
 62
     0
 92
       -2
340
0
 93
        0
 40
0.045
309
GRIDFORMAT_END
 95
        2
302
GRIDFORMAT
  1
GRIDFORMAT_BEGIN
 90
        0
 91
        1
 62
     0
 92
       -2
340
0
 93
        0
 40
0.045
309
GRIDFORMAT_END
 95
        4
302
GRIDFORMAT
  1
GRIDFORMAT_BEGIN
 90
        0
 91
        1
 62
     0
 92
       -2
340
0
 93
        0
 40
0.045
309
GRIDFORMAT_END
 95
        8
302
GRIDFORMAT
  1
GRIDFORMAT_BEGIN
 90
        0
 91
        1
 62
     0
 92
       -2
340
0
 93
        0
 40
0.045
309
GRIDFORMAT_END
 95
       16
302
GRIDFORMAT
  1
GRIDFORMAT_BEGIN
 90
        0
 91
        1
 62
     0
 92
       -2
340
0
 93
        0
 40
0.045
309
GRIDFORMAT_END
 95
       32
302
GRIDFORMAT
  1
GRIDFORMAT_BEGIN
 90
        0
 91
        1
 62
     0
 92
       -2
340
0
 93
        0
 40
0.045
309
GRIDFORMAT_END
309
TABLEFORMAT_END
  1
CELLSTYLE_BEGIN
 90
        3
 91
        2
300
_DATA
309
CELLSTYLE_END
  0
XRECORD
  5
166A0B99A42C6BC
102
{ACAD_REACTORS
330
166A0B99A42C6B6
102
}
330
166A0B99A42C6B6
100
AcDbXrecord
280
     1
102
ACAD_ROUNDTRIP_PRE2007_TABLESTYLE
 90
      512
 91
        0
  1

 92
      512
 93
        0
  2

 94
      512
 95
        0
  3

  0
ENDSEC
  0
EOF
