  0
SECTION
  2
HEADER
  9
$ACADVER
  1
AC1015
  9
$ACADMAINTVER
 70
     6
  9
$DWGCODEPAGE
  3
ANSI_1252
  9
$INSBASE
 10
1249.628823367817
 20
15236.34715912588
 30
0.0
  9
$EXTMIN
 10
1233.032276892379
 20
15216.79692996759
 30
-0.0000000349181948
  9
$EXTMAX
 10
1266.677882367141
 20
15255.85941138661
 30
0.0000000814935746
  9
$LIMMIN
 10
0.0
 20
0.0
  9
$LIMMAX
 10
21000.0
 20
16000.0
  9
$ORTHOMODE
 70
     0
  9
$REGENMODE
 70
     1
  9
$FILLMODE
 70
     1
  9
$QTEXTMODE
 70
     0
  9
$MIRRTEXT
 70
     1
  9
$LTSCALE
 40
9.0
  9
$ATTMODE
 70
     1
  9
$TEXTSIZE
 40
1.5
  9
$TRACEWID
 40
1.0
  9
$TEXTSTYLE
  7
NORM
  9
$CLAYER
  8
0
  9
$CELTYPE
  6
ByLayer
  9
$CECOLOR
 62
   256
  9
$CELTSCALE
 40
1.0
  9
$DISPSILH
 70
     0
  9
$DIMSCALE
 40
1.0
  9
$DIMASZ
 40
3.0
  9
$DIMEXO
 40
0.0
  9
$DIMDLI
 40
7.0
  9
$DIMRND
 40
0.0
  9
$DIMDLE
 40
50.0
  9
$DIMEXE
 40
1.0
  9
$DIMTP
 40
0.0
  9
$DIMTM
 40
0.0
  9
$DIMTXT
 40
3.0
  9
$DIMCEN
 40
1.5
  9
$DIMTSZ
 40
0.0
  9
$DIMTOL
 70
     0
  9
$DIMLIM
 70
     0
  9
$DIMTIH
 70
     0
  9
$DIMTOH
 70
     0
  9
$DIMSE1
 70
     0
  9
$DIMSE2
 70
     0
  9
$DIMTAD
 70
     1
  9
$DIMZIN
 70
     8
  9
$DIMBLK
  1

  9
$DIMASO
 70
     1
  9
$DIMSHO
 70
     1
  9
$DIMPOST
  1

  9
$DIMAPOST
  1

  9
$DIMALT
 70
     0
  9
$DIMALTD
 70
     2
  9
$DIMALTF
 40
25.39999999999999
  9
$DIMLFAC
 40
1.0
  9
$DIMTOFL
 70
     0
  9
$DIMTVP
 40
0.0
  9
$DIMTIX
 70
     1
  9
$DIMSOXD
 70
     0
  9
$DIMSAH
 70
     0
  9
$DIMBLK1
  1

  9
$DIMBLK2
  1

  9
$DIMSTYLE
  2
BEMA
  9
$DIMCLRD
 70
     0
  9
$DIMCLRE
 70
     0
  9
$DIMCLRT
 70
     0
  9
$DIMTFAC
 40
15.0
  9
$DIMGAP
 40
1.0
  9
$DIMJUST
 70
     0
  9
$DIMSD1
 70
     0
  9
$DIMSD2
 70
     0
  9
$DIMTOLJ
 70
     1
  9
$DIMTZIN
 70
     8
  9
$DIMALTZ
 70
     8
  9
$DIMALTTZ
 70
     8
  9
$DIMUPT
 70
     0
  9
$DIMDEC
 70
     2
  9
$DIMTDEC
 70
     2
  9
$DIMALTU
 70
     2
  9
$DIMALTTD
 70
     2
  9
$DIMTXSTY
  7
STANDARD
  9
$DIMAUNIT
 70
     0
  9
$DIMADEC
 70
     2
  9
$DIMALTRND
 40
0.0
  9
$DIMAZIN
 70
     0
  9
$DIMDSEP
 70
    46
  9
$DIMATFIT
 70
     3
  9
$DIMFRAC
 70
     0
  9
$DIMLDRBLK
  1

  9
$DIMLUNIT
 70
     2
  9
$DIMLWD
 70
    -2
  9
$DIMLWE
 70
    -2
  9
$DIMTMOVE
 70
     2
  9
$LUNITS
 70
     2
  9
$LUPREC
 70
     2
  9
$SKETCHINC
 40
1.0
  9
$FILLETRAD
 40
0.0
  9
$AUNITS
 70
     0
  9
$AUPREC
 70
     2
  9
$MENU
  1
CADIM
  9
$ELEVATION
 40
0.0
  9
$PELEVATION
 40
0.0
  9
$THICKNESS
 40
0.0
  9
$LIMCHECK
 70
     0
  9
$CHAMFERA
 40
0.0
  9
$CHAMFERB
 40
0.0
  9
$CHAMFERC
 40
0.0
  9
$CHAMFERD
 40
0.0
  9
$SKPOLY
 70
     0
  9
$TDCREATE
 40
2450736.517325578
  9
$TDUCREATE
 40
2450736.475658912
  9
$TDUPDATE
 40
2452328.478001690
  9
$TDUUPDATE
 40
2452328.436335023
  9
$TDINDWG
 40
2.0136394560
  9
$TDUSRTIMER
 40
2.0136394560
  9
$USRTIMER
 70
     1
  9
$ANGBASE
 50
0.0
  9
$ANGDIR
 70
     0
  9
$PDMODE
 70
     0
  9
$PDSIZE
 40
-2.0
  9
$PLINEWID
 40
0.0
  9
$SPLFRAME
 70
     0
  9
$SPLINETYPE
 70
     6
  9
$SPLINESEGS
 70
     8
  9
$HANDSEED
  5
4D
  9
$SURFTAB1
 70
    16
  9
$SURFTAB2
 70
    16
  9
$SURFTYPE
 70
     6
  9
$SURFU
 70
    12
  9
$SURFV
 70
    12
  9
$UCSBASE
  2

  9
$UCSNAME
  2

  9
$UCSORG
 10
0.0
 20
0.0
 30
0.0
  9
$UCSXDIR
 10
1.0
 20
0.0
 30
0.0
  9
$UCSYDIR
 10
0.0
 20
1.0
 30
0.0
  9
$UCSORTHOREF
  2

  9
$UCSORTHOVIEW
 70
     1
  9
$UCSORGTOP
 10
0.0
 20
0.0
 30
0.0
  9
$UCSORGBOTTOM
 10
0.0
 20
0.0
 30
0.0
  9
$UCSORGLEFT
 10
0.0
 20
0.0
 30
0.0
  9
$UCSORGRIGHT
 10
0.0
 20
0.0
 30
0.0
  9
$UCSORGFRONT
 10
0.0
 20
0.0
 30
0.0
  9
$UCSORGBACK
 10
0.0
 20
0.0
 30
0.0
  9
$PUCSBASE
  2

  9
$PUCSNAME
  2

  9
$PUCSORG
 10
0.0
 20
0.0
 30
0.0
  9
$PUCSXDIR
 10
1.0
 20
0.0
 30
0.0
  9
$PUCSYDIR
 10
0.0
 20
1.0
 30
0.0
  9
$PUCSORTHOREF
  2

  9
$PUCSORTHOVIEW
 70
     0
  9
$PUCSORGTOP
 10
0.0
 20
0.0
 30
0.0
  9
$PUCSORGBOTTOM
 10
0.0
 20
0.0
 30
0.0
  9
$PUCSORGLEFT
 10
0.0
 20
0.0
 30
0.0
  9
$PUCSORGRIGHT
 10
0.0
 20
0.0
 30
0.0
  9
$PUCSORGFRONT
 10
0.0
 20
0.0
 30
0.0
  9
$PUCSORGBACK
 10
0.0
 20
0.0
 30
0.0
  9
$USERI1
 70
     0
  9
$USERI2
 70
   100
  9
$USERI3
 70
     0
  9
$USERI4
 70
     0
  9
$USERI5
 70
     0
  9
$USERR1
 40
0.0
  9
$USERR2
 40
0.0
  9
$USERR3
 40
0.0
  9
$USERR4
 40
0.0
  9
$USERR5
 40
0.0
  9
$WORLDVIEW
 70
     1
  9
$SHADEDGE
 70
     3
  9
$SHADEDIF
 70
    70
  9
$TILEMODE
 70
     1
  9
$MAXACTVP
 70
    16
  9
$PINSBASE
 10
0.0
 20
0.0
 30
0.0
  9
$PLIMCHECK
 70
     0
  9
$PEXTMIN
 10
-0.9123219921164036
 20
163.9821023519408
 30
-0.0015258207003583
  9
$PEXTMAX
 10
136.5792853333746
 20
264.8851172487311
 30
0.0000000349246037
  9
$PLIMMIN
 10
-4.583197245394297
 20
160.7462882432139
  9
$PLIMMAX
 10
148.0167019387169
 20
268.6430104645545
  9
$UNITMODE
 70
     0
  9
$VISRETAIN
 70
     0
  9
$PLINEGEN
 70
     0
  9
$PSLTSCALE
 70
     0
  9
$TREEDEPTH
 70
  3020
  9
$CMLSTYLE
  2
Standard
  9
$CMLJUST
 70
     0
  9
$CMLSCALE
 40
1.0
  9
$PROXYGRAPHICS
 70
     1
  9
$MEASUREMENT
 70
     0
  9
$CELWEIGHT
370
    -1
  9
$ENDCAPS
280
     0
  9
$JOINSTYLE
280
     0
  9
$LWDISPLAY
290
     0
  9
$INSUNITS
 70
     0
  9
$HYPERLINKBASE
  1

  9
$STYLESHEET
  1

  9
$XEDIT
290
     1
  9
$CEPSNTYPE
380
     0
  9
$PSTYLEMODE
290
     1
  9
$FINGERPRINTGUID
  2
{4024CC30-8B81-4DF9-8236-2A3E6F9B86C2}
  9
$VERSIONGUID
  2
{63BC94AD-FCEF-414F-BEAD-59D9BB8587A4}
  9
$EXTNAMES
290
     1
  9
$PSVPSCALE
 40
0.0
  9
$OLESTARTUP
290
     0
  0
ENDSEC
  0
SECTION
  2
CLASSES
  0
CLASS
  1
ACDBDICTIONARYWDFLT
  2
AcDbDictionaryWithDefault
  3
AutoCAD 2000
 90
        0
280
     0
281
     0
  0
CLASS
  1
ACDBPLACEHOLDER
  2
AcDbPlaceHolder
  3
AutoCAD 2000
 90
        0
280
     0
281
     0
  0
CLASS
  1
LAYOUT
  2
AcDbLayout
  3
AutoCAD 2000
 90
        0
280
     0
281
     0
  0
CLASS
  1
DICTIONARYVAR
  2
AcDbDictionaryVar
  3
AutoCAD 2000
 90
    32768
280
     0
281
     0
  0
ENDSEC
  0
SECTION
  2
TABLES
  0
TABLE
  2
VPORT
  5
19
330
0
100
AcDbSymbolTable
 70
     3
  0
VPORT
  5
4C
330
19
100
AcDbSymbolTableRecord
100
AcDbViewportTableRecord
  2
*Active
 70
     0
 10
0.0
 20
0.0
 11
1.0
 21
1.0
 12
41.5736308939936
 22
-78.02260308225595
 13
0.0
 23
0.0
 14
1.0
 24
1.0
 15
10.0
 25
10.0
 16
0.0
 26
0.0
 36
1.0
 17
1208.281448735766
 27
15314.35077375935
 37
0.0
 40
39.31023500096208
 41
1.611640211640211
 42
50.0
 43
0.0
 44
0.0
 50
0.0
 51
0.0
 71
     0
 72
  2000
 73
     1
 74
     3
 75
     0
 76
     0
 77
     0
 78
     0
281
     0
 65
     1
110
0.0
120
0.0
130
0.0
111
1.0
121
0.0
131
0.0
112
0.0
122
1.0
132
0.0
 79
     0
146
0.0
  0
ENDTAB
  0
TABLE
  2
LTYPE
  5
14
330
0
100
AcDbSymbolTable
 70
     1
  0
LTYPE
  5
15
330
14
100
AcDbSymbolTableRecord
100
AcDbLinetypeTableRecord
  2
ByBlock
 70
     0
  3

 72
    65
 73
     0
 40
0.0
  0
LTYPE
  5
16
330
14
100
AcDbSymbolTableRecord
100
AcDbLinetypeTableRecord
  2
ByLayer
 70
     0
  3

 72
    65
 73
     0
 40
0.0
  0
LTYPE
  5
8
330
14
100
AcDbSymbolTableRecord
100
AcDbLinetypeTableRecord
  2
CONTINUOUS
 70
     0
  3
Solid line
 72
    65
 73
     0
 40
0.0
  0
ENDTAB
  0
TABLE
  2
LAYER
  5
10
330
0
100
AcDbSymbolTable
 70
     2
  0
LAYER
  5
4
330
10
100
AcDbSymbolTableRecord
100
AcDbLayerTableRecord
  2
0
 70
     0
 62
     7
  6
CONTINUOUS
370
    -3
390
5
  0
LAYER
  5
26
330
10
100
AcDbSymbolTableRecord
100
AcDbLayerTableRecord
  2
MODUL
 70
     0
 62
     7
  6
CONTINUOUS
370
    -3
390
5
  0
ENDTAB
  0
TABLE
  2
STYLE
  5
11
330
0
100
AcDbSymbolTable
 70
     2
  0
STYLE
  5
12
330
11
100
AcDbSymbolTableRecord
100
AcDbTextStyleTableRecord
  2
STANDARD
 70
     0
 40
0.0
 41
1.0
 50
0.0
 71
     0
 42
3.5
  3
txt
  4

  0
STYLE
  5
23
330
11
100
AcDbSymbolTableRecord
100
AcDbTextStyleTableRecord
  2
NORM
 70
     0
 40
0.0
 41
1.0
 50
0.0
 71
     0
 42
1.5
  3
iso8
  4

  0
ENDTAB
  0
TABLE
  2
VIEW
  5
17
330
0
100
AcDbSymbolTable
 70
     0
  0
ENDTAB
  0
TABLE
  2
UCS
  5
18
330
0
100
AcDbSymbolTable
 70
     0
  0
ENDTAB
  0
TABLE
  2
APPID
  5
1B
330
0
100
AcDbSymbolTable
 70
     1
  0
APPID
  5
1C
330
1B
100
AcDbSymbolTableRecord
100
AcDbRegAppTableRecord
  2
ACAD
 70
     0
  0
ENDTAB
  0
TABLE
  2
DIMSTYLE
  5
1D
330
0
100
AcDbSymbolTable
 70
     1
100
AcDbDimStyleTable
 71
     1
340
1E
  0
DIMSTYLE
105
1E
330
1D
100
AcDbSymbolTableRecord
100
AcDbDimStyleTableRecord
  2
BEMA
 70
     0
 41
3.0
 42
0.0
 43
7.0
 44
1.0
 46
50.0
 73
     0
 74
     0
 77
     1
 78
     8
140
3.0
141
1.5
143
25.39999999999999
146
15.0
147
1.0
174
     1
179
     2
271
     2
272
     2
279
     2
284
     8
285
     8
286
     8
340
12
  0
ENDTAB
  0
TABLE
  2
BLOCK_RECORD
  5
1
330
0
100
AcDbSymbolTable
 70
     0
  0
BLOCK_RECORD
  5
2
330
1
100
AcDbSymbolTableRecord
100
AcDbBlockTableRecord
  2
*Model_Space
340
A
  0
BLOCK_RECORD
  5
C
330
1
100
AcDbSymbolTableRecord
100
AcDbBlockTableRecord
  2
*Paper_Space
340
F
  0
ENDTAB
  0
ENDSEC
  0
SECTION
  2
BLOCKS
  0
BLOCK
  5
3
330
2
100
AcDbEntity
  8
0
100
AcDbBlockBegin
  2
*Model_Space
 70
     0
 10
0.0
 20
0.0
 30
0.0
  3
*Model_Space
  1

  0
ENDBLK
  5
9
330
2
100
AcDbEntity
  8
0
100
AcDbBlockEnd
  0
BLOCK
  5
D
330
C
100
AcDbEntity
 67
     1
  8
0
100
AcDbBlockBegin
  2
*Paper_Space
 70
     0
 10
0.0
 20
0.0
 30
0.0
  3
*Paper_Space
  1

  0
ENDBLK
  5
E
330
C
100
AcDbEntity
 67
     1
  8
0
100
AcDbBlockEnd
  0
ENDSEC
  0
SECTION
  2
ENTITIES
  0
LINE
  5
25
330
2
100
AcDbEntity
  8
MODUL
100
AcDbLine
 10
1238.220974065782
 20
15247.6061337221
 30
0.0
 11
1237.720974065782
 21
15248.47215912588
 31
0.0
  0
LINE
  5
27
330
2
100
AcDbEntity
  8
MODUL
100
AcDbLine
 10
1245.582189997949
 20
15251.8561337221
 30
0.0
 11
1238.220974065782
 21
15247.6061337221
 31
0.0
  0
LINE
  5
28
330
2
100
AcDbEntity
  8
MODUL
100
AcDbLine
 10
1245.082189997949
 20
15252.72215912588
 30
0.0
 11
1245.582189997949
 21
15251.8561337221
 31
0.0
  0
LINE
  5
29
330
2
100
AcDbEntity
  8
MODUL
100
AcDbLine
 10
1249.628823367818
 20
15255.34715912588
 30
0.0
 11
1245.082189997949
 21
15252.72215912588
 31
0.0
  0
LINE
  5
2A
330
2
100
AcDbEntity
  8
MODUL
100
AcDbLine
 10
1254.175456737687
 20
15252.72215912588
 30
0.0
 11
1249.628823367818
 21
15255.34715912588
 31
0.0
  0
LINE
  5
2B
330
2
100
AcDbEntity
  8
MODUL
100
AcDbLine
 10
1253.675456737687
 20
15251.8561337221
 30
0.0
 11
1254.175456737687
 21
15252.72215912588
 31
0.0
  0
LINE
  5
2C
330
2
100
AcDbEntity
  8
MODUL
100
AcDbLine
 10
1261.036672669854
 20
15247.6061337221
 30
0.0
 11
1253.675456737687
 21
15251.8561337221
 31
0.0
  0
LINE
  5
2D
330
2
100
AcDbEntity
  8
MODUL
100
AcDbLine
 10
1261.536672669854
 20
15248.47215912588
 30
0.0
 11
1261.036672669854
 21
15247.6061337221
 31
0.0
  0
LINE
  5
2E
330
2
100
AcDbEntity
  8
MODUL
100
AcDbLine
 10
1266.083306039722
 20
15245.84715912588
 30
0.0
 11
1261.536672669854
 21
15248.47215912588
 31
0.0
  0
LINE
  5
2F
330
2
100
AcDbEntity
  8
MODUL
100
AcDbLine
 10
1266.083306039722
 20
15240.59715912588
 30
0.0
 11
1266.083306039722
 21
15245.84715912588
 31
0.0
  0
LINE
  5
30
330
2
100
AcDbEntity
  8
MODUL
100
AcDbLine
 10
1265.083306039722
 20
15240.59715912588
 30
0.0
 11
1266.083306039722
 21
15240.59715912588
 31
0.0
  0
LINE
  5
31
330
2
100
AcDbEntity
  8
MODUL
100
AcDbLine
 10
1265.083306039722
 20
15232.09715912588
 30
0.0
 11
1265.083306039722
 21
15240.59715912588
 31
0.0
  0
LINE
  5
32
330
2
100
AcDbEntity
  8
MODUL
100
AcDbLine
 10
1266.083306039722
 20
15232.09715912588
 30
0.0
 11
1265.083306039722
 21
15232.09715912588
 31
0.0
  0
LINE
  5
33
330
2
100
AcDbEntity
  8
MODUL
100
AcDbLine
 10
1266.083306039722
 20
15226.84715912588
 30
0.0
 11
1266.083306039722
 21
15232.09715912588
 31
0.0
  0
LINE
  5
34
330
2
100
AcDbEntity
  8
MODUL
100
AcDbLine
 10
1261.536672669853
 20
15224.22215912588
 30
0.0
 11
1266.083306039722
 21
15226.84715912588
 31
0.0
  0
LINE
  5
35
330
2
100
AcDbEntity
  8
MODUL
100
AcDbLine
 10
1261.036672669853
 20
15225.08818452966
 30
0.0
 11
1261.536672669853
 21
15224.22215912588
 31
0.0
  0
LINE
  5
36
330
2
100
AcDbEntity
  8
MODUL
100
AcDbLine
 10
1253.675456737686
 20
15220.83818452966
 30
0.0
 11
1261.036672669853
 21
15225.08818452966
 31
0.0
  0
LINE
  5
37
330
2
100
AcDbEntity
  8
MODUL
100
AcDbLine
 10
1254.175456737686
 20
15219.97215912588
 30
0.0
 11
1253.675456737686
 21
15220.83818452966
 31
0.0
  0
LINE
  5
38
330
2
100
AcDbEntity
  8
MODUL
100
AcDbLine
 10
1249.628823367817
 20
15217.34715912588
 30
0.0
 11
1254.175456737686
 21
15219.97215912588
 31
0.0
  0
LINE
  5
39
330
2
100
AcDbEntity
  8
MODUL
100
AcDbLine
 10
1245.082189997949
 20
15219.97215912588
 30
0.0
 11
1249.628823367817
 21
15217.34715912588
 31
0.0
  0
LINE
  5
3A
330
2
100
AcDbEntity
  8
MODUL
100
AcDbLine
 10
1245.582189997949
 20
15220.83818452967
 30
0.0
 11
1245.082189997949
 21
15219.97215912588
 31
0.0
  0
LINE
  5
3B
330
2
100
AcDbEntity
  8
MODUL
100
AcDbLine
 10
1238.220974065782
 20
15225.08818452967
 30
0.0
 11
1245.582189997949
 21
15220.83818452967
 31
0.0
  0
LINE
  5
3C
330
2
100
AcDbEntity
  8
MODUL
100
AcDbLine
 10
1237.720974065782
 20
15224.22215912588
 30
0.0
 11
1238.220974065782
 21
15225.08818452967
 31
0.0
  0
LINE
  5
3D
330
2
100
AcDbEntity
  8
MODUL
100
AcDbLine
 10
1233.174340695913
 20
15226.84715912588
 30
0.0
 11
1237.720974065782
 21
15224.22215912588
 31
0.0
  0
LINE
  5
3E
330
2
100
AcDbEntity
  8
MODUL
100
AcDbLine
 10
1233.174340695914
 20
15232.09715912588
 30
0.0
 11
1233.174340695913
 21
15226.84715912588
 31
0.0
  0
LINE
  5
3F
330
2
100
AcDbEntity
  8
MODUL
100
AcDbLine
 10
1234.174340695914
 20
15232.09715912588
 30
0.0
 11
1233.174340695914
 21
15232.09715912588
 31
0.0
  0
LINE
  5
40
330
2
100
AcDbEntity
  8
MODUL
100
AcDbLine
 10
1234.174340695914
 20
15240.59715912588
 30
0.0
 11
1234.174340695914
 21
15232.09715912588
 31
0.0
  0
LINE
  5
41
330
2
100
AcDbEntity
  8
MODUL
100
AcDbLine
 10
1233.174340695914
 20
15240.59715912588
 30
0.0
 11
1234.174340695914
 21
15240.59715912588
 31
0.0
  0
LINE
  5
42
330
2
100
AcDbEntity
  8
MODUL
100
AcDbLine
 10
1233.174340695914
 20
15245.84715912588
 30
0.0
 11
1233.174340695914
 21
15240.59715912588
 31
0.0
  0
LINE
  5
43
330
2
100
AcDbEntity
  8
MODUL
100
AcDbLine
 10
1237.720974065782
 20
15248.47215912588
 30
0.0
 11
1233.174340695914
 21
15245.84715912588
 31
0.0
  0
ENDSEC
  0
SECTION
  2
OBJECTS
  0
DICTIONARY
  5
7
330
0
100
AcDbDictionary
281
     1
  3
ACAD_GROUP
350
20
  3
ACAD_LAYOUT
350
B
  3
ACAD_MLINESTYLE
350
21
  3
ACAD_PLOTSETTINGS
350
22
  3
ACAD_PLOTSTYLENAME
350
6
  0
DICTIONARY
  5
20
102
{ACAD_REACTORS
330
7
102
}
330
7
100
AcDbDictionary
281
     1
  0
DICTIONARY
  5
B
102
{ACAD_REACTORS
330
7
102
}
330
7
100
AcDbDictionary
281
     1
  3
Layout1
350
F
  3
Model
350
A
  0
DICTIONARY
  5
21
102
{ACAD_REACTORS
330
7
102
}
330
7
100
AcDbDictionary
281
     1
  3
Standard
350
24
  0
DICTIONARY
  5
22
102
{ACAD_REACTORS
330
7
102
}
330
7
100
AcDbDictionary
281
     1
  0
ACDBDICTIONARYWDFLT
  5
6
102
{ACAD_REACTORS
330
7
102
}
330
7
100
AcDbDictionary
281
     1
  3
Normal
350
5
100
AcDbDictionaryWithDefault
340
5
  0
LAYOUT
  5
F
102
{ACAD_REACTORS
330
B
102
}
330
B
100
AcDbPlotSettings
  1

  2
HP LaserJet 6P
  4
A4
  6

 40
6.297083377838134
 41
7.778735637664794
 42
7.313079833984375
 43
7.14373779296875
 44
209.9733276367187
 45
296.9683227539062
 46
0.0
 47
0.0
 48
0.0
 49
0.0
140
0.0
141
0.0
142
1.0
143
13.05202320345947
 70
   688
 72
     0
 73
     1
 74
     1
  7

 75
     0
147
0.076616474274651
148
23.17297859975665
149
-4165.145399739297
100
AcDbLayout
  1
Layout1
 70
     0
 71
     1
 10
-4.583197245394297
 20
160.7462882432139
 11
148.0167019387169
 21
268.6430104645545
 12
0.0
 22
0.0
 32
0.0
 14
-0.9123219921164036
 24
163.9821023519408
 34
-0.0015258207003583
 15
136.5792853333746
 25
264.8851172487311
 35
0.0000000349246037
146
0.0
 13
0.0
 23
0.0
 33
0.0
 16
1.0
 26
0.0
 36
0.0
 17
0.0
 27
1.0
 37
0.0
 76
     0
330
C
  0
LAYOUT
  5
A
102
{ACAD_REACTORS
330
B
102
}
330
B
100
AcDbPlotSettings
  1

  2
HP LaserJet 6P
  4

  6

 40
0.0
 41
0.0
 42
0.0
 43
0.0
 44
0.0
 45
0.0
 46
0.0
 47
0.0
 48
0.0
 49
0.0
140
0.0
141
0.0
142
1.0
143
1.0
 70
  1712
 72
     0
 73
     0
 74
     0
  7

 75
     0
147
1.0
148
0.0
149
0.0
100
AcDbLayout
  1
Model
 70
     1
 71
     0
 10
0.0
 20
0.0
 11
12.0
 21
9.0
 12
0.0
 22
0.0
 32
0.0
 14
0.0
 24
0.0
 34
0.0
 15
0.0
 25
0.0
 35
0.0
146
0.0
 13
0.0
 23
0.0
 33
0.0
 16
1.0
 26
0.0
 36
0.0
 17
0.0
 27
1.0
 37
0.0
 76
     0
330
2
  0
MLINESTYLE
  5
24
102
{ACAD_REACTORS
330
21
102
}
330
21
100
AcDbMlineStyle
  2
STANDARD
 70
     0
  3

 62
   256
 51
90.0
 52
90.0
 71
     2
 49
0.5
 62
   256
  6
BYLAYER
 49
-0.5
 62
   256
  6
BYLAYER
  0
ACDBPLACEHOLDER
  5
5
102
{ACAD_REACTORS
330
6
102
}
330
6
  0
ENDSEC
  0
EOF
