  0
SECTION
  2
HEADER
  9
$ACADVER
  1
AC1015
  9
$ACADMAINTVER
 70
    20
  9
$DWGCODEPAGE
  3
ANSI_1252
  9
$INSBASE
 10
0.0
 20
0.0
 30
0.0
  9
$EXTMIN
 10
-0.0054430514289265
 20
-0.0122798340316877
 30
-0.0015258207003583
  9
$EXTMAX
 10
70.00173140547537
 20
13.50106317154956
 30
0.0000000349246037
  9
$LIMMIN
 10
0.0
 20
0.0
  9
$LIMMAX
 10
12.0
 20
9.0
  9
$ORTHOMODE
 70
     1
  9
$REGENMODE
 70
     1
  9
$FILLMODE
 70
     1
  9
$QTEXTMODE
 70
     0
  9
$MIRRTEXT
 70
     0
  9
$LTSCALE
 40
1.0
  9
$ATTMODE
 70
     1
  9
$TEXTSIZE
 40
0.2
  9
$TRACEWID
 40
0.05
  9
$TEXTSTYLE
  7
Standard
  9
$CLAYER
  8
0
  9
$CELTYPE
  6
Continuous
  9
$CECOLOR
 62
   256
  9
$CELTSCALE
 40
1.0
  9
$DISPSILH
 70
     0
  9
$DIMSCALE
 40
12.0
  9
$DIMASZ
 40
0.18
  9
$DIMEXO
 40
0.0625
  9
$DIMDLI
 40
0.38
  9
$DIMRND
 40
0.0
  9
$DIMDLE
 40
0.0
  9
$DIMEXE
 40
0.18
  9
$DIMTP
 40
0.0
  9
$DIMTM
 40
0.0
  9
$DIMTXT
 40
0.18
  9
$DIMCEN
 40
0.09
  9
$DIMTSZ
 40
0.0
  9
$DIMTOL
 70
     0
  9
$DIMLIM
 70
     0
  9
$DIMTIH
 70
     1
  9
$DIMTOH
 70
     1
  9
$DIMSE1
 70
     0
  9
$DIMSE2
 70
     0
  9
$DIMTAD
 70
     0
  9
$DIMZIN
 70
     0
  9
$DIMBLK
  1

  9
$DIMASO
 70
     1
  9
$DIMSHO
 70
     1
  9
$DIMPOST
  1

  9
$DIMAPOST
  1

  9
$DIMALT
 70
     0
  9
$DIMALTD
 70
     2
  9
$DIMALTF
 40
25.4
  9
$DIMLFAC
 40
1.0
  9
$DIMTOFL
 70
     0
  9
$DIMTVP
 40
0.0
  9
$DIMTIX
 70
     0
  9
$DIMSOXD
 70
     0
  9
$DIMSAH
 70
     0
  9
$DIMBLK1
  1

  9
$DIMBLK2
  1

  9
$DIMSTYLE
  2
Standard
  9
$DIMCLRD
 70
     0
  9
$DIMCLRE
 70
     0
  9
$DIMCLRT
 70
     0
  9
$DIMTFAC
 40
1.0
  9
$DIMGAP
 40
0.09
  9
$DIMJUST
 70
     0
  9
$DIMSD1
 70
     0
  9
$DIMSD2
 70
     0
  9
$DIMTOLJ
 70
     1
  9
$DIMTZIN
 70
     0
  9
$DIMALTZ
 70
     0
  9
$DIMALTTZ
 70
     0
  9
$DIMUPT
 70
     0
  9
$DIMDEC
 70
     4
  9
$DIMTDEC
 70
     4
  9
$DIMALTU
 70
     2
  9
$DIMALTTD
 70
     2
  9
$DIMTXSTY
  7
Standard
  9
$DIMAUNIT
 70
     0
  9
$DIMADEC
 70
     0
  9
$DIMALTRND
 40
0.0
  9
$DIMAZIN
 70
     0
  9
$DIMDSEP
 70
    46
  9
$DIMATFIT
 70
     3
  9
$DIMFRAC
 70
     0
  9
$DIMLDRBLK
  1

  9
$DIMLUNIT
 70
     2
  9
$DIMLWD
 70
    -2
  9
$DIMLWE
 70
    -2
  9
$DIMTMOVE
 70
     0
  9
$LUNITS
 70
     2
  9
$LUPREC
 70
     4
  9
$SKETCHINC
 40
0.1
  9
$FILLETRAD
 40
0.0
  9
$AUNITS
 70
     0
  9
$AUPREC
 70
     0
  9
$MENU
  1
.
  9
$ELEVATION
 40
0.0
  9
$PELEVATION
 40
0.0
  9
$THICKNESS
 40
0.0
  9
$LIMCHECK
 70
     0
  9
$CHAMFERA
 40
0.0
  9
$CHAMFERB
 40
0.0
  9
$CHAMFERC
 40
0.0
  9
$CHAMFERD
 40
0.0
  9
$SKPOLY
 70
     0
  9
$TDCREATE
 40
2454867.130322593
  9
$TDUCREATE
 40
2454867.421989260
  9
$TDUPDATE
 40
2456057.752254780
  9
$TDUUPDATE
 40
2456058.043921447
  9
$TDINDWG
 40
0.0606985995
  9
$TDUSRTIMER
 40
0.0606985648
  9
$USRTIMER
 70
     1
  9
$ANGBASE
 50
0.0
  9
$ANGDIR
 70
     0
  9
$PDMODE
 70
     0
  9
$PDSIZE
 40
0.0
  9
$PLINEWID
 40
0.0
  9
$SPLFRAME
 70
     0
  9
$SPLINETYPE
 70
     6
  9
$SPLINESEGS
 70
     8
  9
$HANDSEED
  5
4B7
  9
$SURFTAB1
 70
     6
  9
$SURFTAB2
 70
     6
  9
$SURFTYPE
 70
     6
  9
$SURFU
 70
     6
  9
$SURFV
 70
     6
  9
$UCSBASE
  2

  9
$UCSNAME
  2

  9
$UCSORG
 10
0.0
 20
0.0
 30
0.0
  9
$UCSXDIR
 10
1.0
 20
0.0
 30
0.0
  9
$UCSYDIR
 10
0.0
 20
1.0
 30
0.0
  9
$UCSORTHOREF
  2

  9
$UCSORTHOVIEW
 70
     0
  9
$UCSORGTOP
 10
0.0
 20
0.0
 30
0.0
  9
$UCSORGBOTTOM
 10
0.0
 20
0.0
 30
0.0
  9
$UCSORGLEFT
 10
0.0
 20
0.0
 30
0.0
  9
$UCSORGRIGHT
 10
0.0
 20
0.0
 30
0.0
  9
$UCSORGFRONT
 10
0.0
 20
0.0
 30
0.0
  9
$UCSORGBACK
 10
0.0
 20
0.0
 30
0.0
  9
$PUCSBASE
  2

  9
$PUCSNAME
  2

  9
$PUCSORG
 10
0.0
 20
0.0
 30
0.0
  9
$PUCSXDIR
 10
1.0
 20
0.0
 30
0.0
  9
$PUCSYDIR
 10
0.0
 20
1.0
 30
0.0
  9
$PUCSORTHOREF
  2

  9
$PUCSORTHOVIEW
 70
     0
  9
$PUCSORGTOP
 10
0.0
 20
0.0
 30
0.0
  9
$PUCSORGBOTTOM
 10
0.0
 20
0.0
 30
0.0
  9
$PUCSORGLEFT
 10
0.0
 20
0.0
 30
0.0
  9
$PUCSORGRIGHT
 10
0.0
 20
0.0
 30
0.0
  9
$PUCSORGFRONT
 10
0.0
 20
0.0
 30
0.0
  9
$PUCSORGBACK
 10
0.0
 20
0.0
 30
0.0
  9
$USERI1
 70
     0
  9
$USERI2
 70
     0
  9
$USERI3
 70
     0
  9
$USERI4
 70
     0
  9
$USERI5
 70
     0
  9
$USERR1
 40
0.0
  9
$USERR2
 40
0.0
  9
$USERR3
 40
0.0
  9
$USERR4
 40
0.0
  9
$USERR5
 40
0.0
  9
$WORLDVIEW
 70
     0
  9
$SHADEDGE
 70
     3
  9
$SHADEDIF
 70
    70
  9
$TILEMODE
 70
     1
  9
$MAXACTVP
 70
    64
  9
$PINSBASE
 10
0.0
 20
0.0
 30
0.0
  9
$PLIMCHECK
 70
     0
  9
$PEXTMIN
 10
1.000000000000000E+20
 20
1.000000000000000E+20
 30
1.000000000000000E+20
  9
$PEXTMAX
 10
-1.000000000000000E+20
 20
-1.000000000000000E+20
 30
-1.000000000000000E+20
  9
$PLIMMIN
 10
0.0
 20
0.0
  9
$PLIMMAX
 10
12.0
 20
9.0
  9
$UNITMODE
 70
     0
  9
$VISRETAIN
 70
     1
  9
$PLINEGEN
 70
     0
  9
$PSLTSCALE
 70
     1
  9
$TREEDEPTH
 70
  3020
  9
$CMLSTYLE
  2
Standard
  9
$CMLJUST
 70
     0
  9
$CMLSCALE
 40
1.0
  9
$PROXYGRAPHICS
 70
     1
  9
$MEASUREMENT
 70
     1
  9
$CELWEIGHT
370
    -1
  9
$ENDCAPS
280
     0
  9
$JOINSTYLE
280
     0
  9
$LWDISPLAY
290
     0
  9
$INSUNITS
 70
     0
  9
$HYPERLINKBASE
  1

  9
$STYLESHEET
  1

  9
$XEDIT
290
     1
  9
$CEPSNTYPE
380
     0
  9
$PSTYLEMODE
290
     1
  9
$FINGERPRINTGUID
  2
{D941EFBD-F281-469E-BF00-6131259A801E}
  9
$VERSIONGUID
  2
{34228DD4-3177-444C-8389-7C1CAF5842C6}
  9
$EXTNAMES
290
     1
  9
$PSVPSCALE
 40
0.0
  9
$OLESTARTUP
290
     0
  0
ENDSEC
  0
SECTION
  2
CLASSES
  0
CLASS
  1
ACDBDICTIONARYWDFLT
  2
AcDbDictionaryWithDefault
  3
ObjectDBX Classes
 90
        0
280
     0
281
     0
  0
CLASS
  1
MATERIAL
  2
AcDbMaterial
  3
ObjectDBX Classes
 90
     1153
280
     0
281
     0
  0
CLASS
  1
VISUALSTYLE
  2
AcDbVisualStyle
  3
ObjectDBX Classes
 90
     4095
280
     0
281
     0
  0
CLASS
  1
TABLESTYLE
  2
AcDbTableStyle
  3
ObjectDBX Classes
 90
     4095
280
     0
281
     0
  0
CLASS
  1
Ks_BoltStyle
  2
Ks_BoltStyle
  3
Pro_Stahl_3d
 90
    32768
280
     0
281
     0
  0
CLASS
  1
SORTENTSTABLE
  2
AcDbSortentsTable
  3
ObjectDBX Classes
 90
        0
280
     0
281
     0
  0
CLASS
  1
DICTIONARYVAR
  2
AcDbDictionaryVar
  3
ObjectDBX Classes
 90
        0
280
     0
281
     0
  0
CLASS
  1
ACDBPLACEHOLDER
  2
AcDbPlaceHolder
  3
ObjectDBX Classes
 90
        0
280
     0
281
     0
  0
CLASS
  1
LAYOUT
  2
AcDbLayout
  3
ObjectDBX Classes
 90
        0
280
     0
281
     0
  0
CLASS
  1
SCALE
  2
AcDbScale
  3
ObjectDBX Classes
 90
     1153
280
     0
281
     0
  0
CLASS
  1
MLEADERSTYLE
  2
AcDbMLeaderStyle
  3
ACDB_MLEADERSTYLE_CLASS
 90
     4095
280
     0
281
     0
  0
CLASS
  1
CELLSTYLEMAP
  2
AcDbCellStyleMap
  3
ObjectDBX Classes
 90
     1152
280
     0
281
     0
  0
ENDSEC
  0
SECTION
  2
TABLES
  0
TABLE
  2
VPORT
  5
8
330
0
100
AcDbSymbolTable
 70
     1
  0
VPORT
  5
3D
330
8
100
AcDbSymbolTableRecord
100
AcDbViewportTableRecord
  2
*Active
 70
     0
 10
0.0
 20
0.0
 11
1.0
 21
1.0
 12
39.31416512628911
 22
1.258716644010121
 13
0.0
 23
0.0
 14
1.0
 24
1.0
 15
0.0
 25
0.0
 16
0.0
 26
0.0
 36
1.0
 17
0.0
 27
0.0
 37
0.0
 40
72.87220346299455
 41
1.544459644322845
 42
50.0
 43
0.0
 44
0.0
 50
0.0
 51
0.0
 71
     0
 72
   100
 73
     1
 74
     3
 75
     0
 76
     0
 77
     0
 78
     0
281
     0
 65
     1
110
0.0
120
0.0
130
0.0
111
1.0
121
0.0
131
0.0
112
0.0
122
1.0
132
0.0
 79
     0
146
0.0
  0
ENDTAB
  0
TABLE
  2
LTYPE
  5
5
330
0
100
AcDbSymbolTable
 70
     4
  0
LTYPE
  5
28
330
5
100
AcDbSymbolTableRecord
100
AcDbLinetypeTableRecord
  2
ByBlock
 70
     0
  3

 72
    65
 73
     0
 40
0.0
  0
LTYPE
  5
29
330
5
100
AcDbSymbolTableRecord
100
AcDbLinetypeTableRecord
  2
ByLayer
 70
     0
  3

 72
    65
 73
     0
 40
0.0
  0
LTYPE
  5
2A
330
5
100
AcDbSymbolTableRecord
100
AcDbLinetypeTableRecord
  2
Continuous
 70
     0
  3
Solid line
 72
    65
 73
     0
 40
0.0
  0
LTYPE
  5
108
330
5
100
AcDbSymbolTableRecord
100
AcDbLinetypeTableRecord
  2
MITTE
 70
     0
  3
____ _ ____ _ ____ _ ____ _ ____ _ ____ _ ____ 
 72
    65
 73
     4
 40
2.0
 49
1.25
 74
     0
 49
-0.25
 74
     0
 49
0.25
 74
     0
 49
-0.25
 74
     0
  0
LTYPE
  5
109
330
5
100
AcDbSymbolTableRecord
100
AcDbLinetypeTableRecord
  2
HIDDEN
 70
     0
  3
__ __ __ __ __ __ __ __ __ __ __ __ __ __ __ __
 72
    65
 73
     2
 40
0.375
 49
0.25
 74
     0
 49
-0.125
 74
     0
  0
ENDTAB
  0
TABLE
  2
LAYER
  5
2
102
{ACAD_XDICTIONARY
360
146
102
}
330
0
100
AcDbSymbolTable
 70
    21
  0
LAYER
  5
25
102
{ACAD_XDICTIONARY
360
484
102
}
330
2
100
AcDbSymbolTableRecord
100
AcDbLayerTableRecord
  2
0
 70
     0
 62
     7
  6
Continuous
370
    -3
390
F
  0
LAYER
  5
10A
102
{ACAD_XDICTIONARY
360
10B
102
}
330
2
100
AcDbSymbolTableRecord
100
AcDbLayerTableRecord
  2
PS_PROFIL
 70
     0
 62
   161
  6
Continuous
370
    -3
390
F
  0
LAYER
  5
10C
102
{ACAD_XDICTIONARY
360
10D
102
}
330
2
100
AcDbSymbolTableRecord
100
AcDbLayerTableRecord
  2
PS_RAHMEN
 70
     0
 62
     6
  6
Continuous
370
    -3
390
F
  0
LAYER
  5
10E
102
{ACAD_XDICTIONARY
360
10F
102
}
330
2
100
AcDbSymbolTableRecord
100
AcDbLayerTableRecord
  2
PS_KONST
 70
     0
 62
     2
  6
Continuous
370
    -3
390
F
  0
LAYER
  5
110
102
{ACAD_XDICTIONARY
360
111
102
}
330
2
100
AcDbSymbolTableRecord
100
AcDbLayerTableRecord
  2
PS_PLATTE
 70
     0
 62
    35
  6
Continuous
370
    -3
390
F
  0
LAYER
  5
112
102
{ACAD_XDICTIONARY
360
113
102
}
330
2
100
AcDbSymbolTableRecord
100
AcDbLayerTableRecord
  2
PS_SCHRAUBE
 70
     0
 62
     4
  6
Continuous
370
    -3
390
F
  0
LAYER
  5
114
102
{ACAD_XDICTIONARY
360
115
102
}
330
2
100
AcDbSymbolTableRecord
100
AcDbLayerTableRecord
  2
PS_BEMAS
 70
     0
 62
     4
  6
Continuous
370
    -3
390
F
  0
LAYER
  5
116
102
{ACAD_XDICTIONARY
360
117
102
}
330
2
100
AcDbSymbolTableRecord
100
AcDbLayerTableRecord
  2
PS_MITTE
 70
     0
 62
     5
  6
MITTE
370
    -3
390
F
  0
LAYER
  5
118
102
{ACAD_XDICTIONARY
360
119
102
}
330
2
100
AcDbSymbolTableRecord
100
AcDbLayerTableRecord
  2
PS_VOLL
 70
     0
 62
     7
  6
Continuous
370
    -3
390
F
  0
LAYER
  5
11A
102
{ACAD_XDICTIONARY
360
11B
102
}
330
2
100
AcDbSymbolTableRecord
100
AcDbLayerTableRecord
  2
PS_VERDECKT
 70
     0
 62
     2
  6
HIDDEN
370
    -3
390
F
  0
LAYER
  5
11C
102
{ACAD_XDICTIONARY
360
11D
102
}
330
2
100
AcDbSymbolTableRecord
100
AcDbLayerTableRecord
  2
PS_POS
 70
     0
 62
     1
  6
Continuous
370
    -3
390
F
  0
LAYER
  5
11E
102
{ACAD_XDICTIONARY
360
11F
102
}
330
2
100
AcDbSymbolTableRecord
100
AcDbLayerTableRecord
  2
PS_SCHWEIS
 70
     0
 62
     1
  6
Continuous
370
    -3
390
F
  0
LAYER
  5
120
102
{ACAD_XDICTIONARY
360
121
102
}
330
2
100
AcDbSymbolTableRecord
100
AcDbLayerTableRecord
  2
PS_DAWA
 70
     0
 62
     5
  6
Continuous
370
    -3
390
F
  0
LAYER
  5
122
102
{ACAD_XDICTIONARY
360
123
102
}
330
2
100
AcDbSymbolTableRecord
100
AcDbLayerTableRecord
  2
PS_KOTE
 70
     0
 62
     4
  6
Continuous
370
    -3
390
F
  0
LAYER
  5
124
102
{ACAD_XDICTIONARY
360
125
102
}
330
2
100
AcDbSymbolTableRecord
100
AcDbLayerTableRecord
  2
PS_TEXT
 70
     0
 62
     7
  6
Continuous
370
    -3
390
F
  0
LAYER
  5
126
102
{ACAD_XDICTIONARY
360
127
102
}
330
2
100
AcDbSymbolTableRecord
100
AcDbLayerTableRecord
  2
PS_SCHRAFF
 70
     0
 62
     3
  6
Continuous
370
    -3
390
F
  0
LAYER
  5
128
102
{ACAD_XDICTIONARY
360
129
102
}
330
2
100
AcDbSymbolTableRecord
100
AcDbLayerTableRecord
  2
PS_OBJECT
 70
     0
 62
     2
  6
Continuous
370
    -3
390
F
  0
LAYER
  5
12A
102
{ACAD_XDICTIONARY
360
12B
102
}
330
2
100
AcDbSymbolTableRecord
100
AcDbLayerTableRecord
  2
PC_CONCRETE
 70
     0
 62
     4
  6
Continuous
370
    -3
390
F
  0
LAYER
  5
12C
102
{ACAD_XDICTIONARY
360
12D
102
}
330
2
100
AcDbSymbolTableRecord
100
AcDbLayerTableRecord
  2
PC_REBAR
 70
     0
 62
     5
  6
Continuous
370
    -3
390
F
  0
LAYER
  5
143
102
{ACAD_XDICTIONARY
360
498
102
}
330
2
100
AcDbSymbolTableRecord
100
AcDbLayerTableRecord
  2
KONTUR
 70
     0
 62
   250
  6
Continuous
370
    -3
390
F
  0
LAYER
  5
14F
330
2
100
AcDbSymbolTableRecord
100
AcDbLayerTableRecord
  2
Defpoints
 70
     0
 62
     7
  6
Continuous
290
     0
370
    -3
390
F
  0
ENDTAB
  0
TABLE
  2
STYLE
  5
3
330
0
100
AcDbSymbolTable
 70
     2
  0
STYLE
  5
26
330
3
100
AcDbSymbolTableRecord
100
AcDbTextStyleTableRecord
  2
Standard
 70
     0
 40
0.0
 41
1.0
 50
0.0
 71
     0
 42
0.2
  3
txt
  4

  0
STYLE
  5
12E
330
3
100
AcDbSymbolTableRecord
100
AcDbTextStyleTableRecord
  2
Annotative
 70
     0
 40
0.0
 41
1.0
 50
0.0
 71
     0
 42
0.2
  3
txt
  4

1001
AcadAnnotative
1000
AnnotativeData
1002
{
1070
     1
1070
     1
1002
}
  0
ENDTAB
  0
TABLE
  2
VIEW
  5
6
330
0
100
AcDbSymbolTable
 70
     0
  0
ENDTAB
  0
TABLE
  2
UCS
  5
7
330
0
100
AcDbSymbolTable
 70
     0
  0
ENDTAB
  0
TABLE
  2
APPID
  5
9
330
0
100
AcDbSymbolTable
 70
     8
  0
APPID
  5
27
330
9
100
AcDbSymbolTableRecord
100
AcDbRegAppTableRecord
  2
ACAD
 70
     0
  0
APPID
  5
6A
330
9
100
AcDbSymbolTableRecord
100
AcDbRegAppTableRecord
  2
ProSteel3d_Bg
 70
     0
  0
APPID
  5
6B
330
9
100
AcDbSymbolTableRecord
100
AcDbRegAppTableRecord
  2
ProSteel3d_Sp
 70
     0
  0
APPID
  5
6C
330
9
100
AcDbSymbolTableRecord
100
AcDbRegAppTableRecord
  2
ProSteel3d_DetDimEed
 70
     0
  0
APPID
  5
84
330
9
100
AcDbSymbolTableRecord
100
AcDbRegAppTableRecord
  2
ACAD_EXEMPT_FROM_CAD_STANDARDS
 70
     0
  0
APPID
  5
FF
330
9
100
AcDbSymbolTableRecord
100
AcDbRegAppTableRecord
  2
ACAD_MLEADERVER
 70
     0
  0
APPID
  5
130
330
9
100
AcDbSymbolTableRecord
100
AcDbRegAppTableRecord
  2
AcadAnnotative
 70
     0
  0
APPID
  5
145
330
9
100
AcDbSymbolTableRecord
100
AcDbRegAppTableRecord
  2
ACAD_DSTYLE_DIMJOGGED_JOGANGLE_SYMBOL
 70
     0
  0
ENDTAB
  0
TABLE
  2
DIMSTYLE
  5
A
330
0
100
AcDbSymbolTable
 70
     4
100
AcDbDimStyleTable
 71
     1
340
52
  0
DIMSTYLE
105
52
330
A
100
AcDbSymbolTableRecord
100
AcDbDimStyleTableRecord
  2
Standard
 70
     0
340
26
  0
DIMSTYLE
105
12F
330
A
100
AcDbSymbolTableRecord
100
AcDbDimStyleTableRecord
  2
Annotative
 70
     0
340
26
1001
AcadAnnotative
1000
AnnotativeData
1002
{
1070
     1
1070
     1
1002
}
  0
DIMSTYLE
105
144
330
A
100
AcDbSymbolTableRecord
100
AcDbDimStyleTableRecord
  2
ISO-25
 70
     0
 41
2.5
 42
0.625
 43
3.75
 44
1.25
 73
     0
 74
     0
 77
     1
 78
     8
140
2.5
141
2.5
143
0.03937007874016
147
0.625
171
     3
172
     1
271
     2
272
     2
274
     3
278
    44
283
     0
284
     8
340
26
1001
ACAD_DSTYLE_DIMJOGGED_JOGANGLE_SYMBOL
1070
   384
1040
1.570796326794896
  0
ENDTAB
  0
TABLE
  2
BLOCK_RECORD
  5
1
330
0
100
AcDbSymbolTable
 70
    40
  0
BLOCK_RECORD
  5
36
102
{ACAD_XDICTIONARY
360
80
102
}
330
1
100
AcDbSymbolTableRecord
100
AcDbBlockTableRecord
  2
*Model_Space
340
39
  0
BLOCK_RECORD
  5
32
330
1
100
AcDbSymbolTableRecord
100
AcDbBlockTableRecord
  2
*Paper_Space
340
35
  0
BLOCK_RECORD
  5
102
102
{ACAD_XDICTIONARY
360
103
102
}
330
1
100
AcDbSymbolTableRecord
100
AcDbBlockTableRecord
  2
TSP_50
340
0
  0
BLOCK_RECORD
  5
13D
102
{ACAD_XDICTIONARY
360
13E
102
}
330
1
100
AcDbSymbolTableRecord
100
AcDbBlockTableRecord
  2
TS P 50
340
0
102
{BLKREFS
331
149
102
}
  0
BLOCK_RECORD
  5
150
330
1
100
AcDbSymbolTableRecord
100
AcDbBlockTableRecord
  2
*D5
340
0
  0
BLOCK_RECORD
  5
15E
330
1
100
AcDbSymbolTableRecord
100
AcDbBlockTableRecord
  2
*D6
340
0
  0
BLOCK_RECORD
  5
1B4
330
1
100
AcDbSymbolTableRecord
100
AcDbBlockTableRecord
  2
*D8
340
0
  0
BLOCK_RECORD
  5
1C4
330
1
100
AcDbSymbolTableRecord
100
AcDbBlockTableRecord
  2
*D9
340
0
  0
BLOCK_RECORD
  5
1D2
330
1
100
AcDbSymbolTableRecord
100
AcDbBlockTableRecord
  2
*D10
340
0
  0
BLOCK_RECORD
  5
20E
330
1
100
AcDbSymbolTableRecord
100
AcDbBlockTableRecord
  2
*D11
340
0
  0
BLOCK_RECORD
  5
21C
330
1
100
AcDbSymbolTableRecord
100
AcDbBlockTableRecord
  2
*D12
340
0
  0
BLOCK_RECORD
  5
235
330
1
100
AcDbSymbolTableRecord
100
AcDbBlockTableRecord
  2
*D13
340
0
  0
BLOCK_RECORD
  5
259
330
1
100
AcDbSymbolTableRecord
100
AcDbBlockTableRecord
  2
*D14
340
0
  0
BLOCK_RECORD
  5
267
330
1
100
AcDbSymbolTableRecord
100
AcDbBlockTableRecord
  2
*D15
340
0
  0
BLOCK_RECORD
  5
283
330
1
100
AcDbSymbolTableRecord
100
AcDbBlockTableRecord
  2
*D16
340
0
  0
BLOCK_RECORD
  5
29A
330
1
100
AcDbSymbolTableRecord
100
AcDbBlockTableRecord
  2
*D17
340
0
  0
BLOCK_RECORD
  5
2A8
330
1
100
AcDbSymbolTableRecord
100
AcDbBlockTableRecord
  2
*D18
340
0
  0
BLOCK_RECORD
  5
2B6
330
1
100
AcDbSymbolTableRecord
100
AcDbBlockTableRecord
  2
*D19
340
0
  0
BLOCK_RECORD
  5
2C4
330
1
100
AcDbSymbolTableRecord
100
AcDbBlockTableRecord
  2
*D20
340
0
  0
BLOCK_RECORD
  5
2D2
330
1
100
AcDbSymbolTableRecord
100
AcDbBlockTableRecord
  2
*D21
340
0
  0
BLOCK_RECORD
  5
2E1
330
1
100
AcDbSymbolTableRecord
100
AcDbBlockTableRecord
  2
*D22
340
0
  0
BLOCK_RECORD
  5
2F9
330
1
100
AcDbSymbolTableRecord
100
AcDbBlockTableRecord
  2
*D23
340
0
  0
BLOCK_RECORD
  5
30B
330
1
100
AcDbSymbolTableRecord
100
AcDbBlockTableRecord
  2
*D24
340
0
  0
BLOCK_RECORD
  5
327
330
1
100
AcDbSymbolTableRecord
100
AcDbBlockTableRecord
  2
*D25
340
0
  0
BLOCK_RECORD
  5
336
330
1
100
AcDbSymbolTableRecord
100
AcDbBlockTableRecord
  2
*D26
340
0
  0
BLOCK_RECORD
  5
345
330
1
100
AcDbSymbolTableRecord
100
AcDbBlockTableRecord
  2
*D27
340
0
  0
BLOCK_RECORD
  5
353
330
1
100
AcDbSymbolTableRecord
100
AcDbBlockTableRecord
  2
*D28
340
0
  0
BLOCK_RECORD
  5
36D
330
1
100
AcDbSymbolTableRecord
100
AcDbBlockTableRecord
  2
*D29
340
0
  0
BLOCK_RECORD
  5
38B
330
1
100
AcDbSymbolTableRecord
100
AcDbBlockTableRecord
  2
*D30
340
0
  0
BLOCK_RECORD
  5
399
330
1
100
AcDbSymbolTableRecord
100
AcDbBlockTableRecord
  2
*D31
340
0
  0
BLOCK_RECORD
  5
3A7
330
1
100
AcDbSymbolTableRecord
100
AcDbBlockTableRecord
  2
*D32
340
0
  0
BLOCK_RECORD
  5
3B5
330
1
100
AcDbSymbolTableRecord
100
AcDbBlockTableRecord
  2
*D33
340
0
  0
BLOCK_RECORD
  5
3C3
330
1
100
AcDbSymbolTableRecord
100
AcDbBlockTableRecord
  2
*D34
340
0
  0
BLOCK_RECORD
  5
3D1
330
1
100
AcDbSymbolTableRecord
100
AcDbBlockTableRecord
  2
*D35
340
0
  0
BLOCK_RECORD
  5
448
330
1
100
AcDbSymbolTableRecord
100
AcDbBlockTableRecord
  2
*D36
340
0
  0
BLOCK_RECORD
  5
457
330
1
100
AcDbSymbolTableRecord
100
AcDbBlockTableRecord
  2
*D37
340
0
  0
BLOCK_RECORD
  5
467
330
1
100
AcDbSymbolTableRecord
100
AcDbBlockTableRecord
  2
*D38
340
0
  0
BLOCK_RECORD
  5
475
330
1
100
AcDbSymbolTableRecord
100
AcDbBlockTableRecord
  2
*D39
340
0
  0
ENDTAB
  0
ENDSEC
  0
SECTION
  2
BLOCKS
  0
BLOCK
  5
37
330
36
100
AcDbEntity
  8
0
100
AcDbBlockBegin
  2
*Model_Space
 70
     0
 10
0.0
 20
0.0
 30
0.0
  3
*Model_Space
  1

  0
ENDBLK
  5
38
330
36
100
AcDbEntity
  8
0
100
AcDbBlockEnd
  0
BLOCK
  5
33
330
32
100
AcDbEntity
 67
     1
  8
0
100
AcDbBlockBegin
  2
*Paper_Space
 70
     0
 10
0.0
 20
0.0
 30
0.0
  3
*Paper_Space
  1

  0
ENDBLK
  5
34
330
32
100
AcDbEntity
 67
     1
  8
0
100
AcDbBlockEnd
  0
BLOCK
  5
105
330
102
100
AcDbEntity
  8
0
100
AcDbBlockBegin
  2
TSP_50
 70
     0
 10
0.0
 20
0.0
 30
0.0
  3
TSP_50
  1

  0
LWPOLYLINE
  5
106
330
102
100
AcDbEntity
  8
0
 62
     0
100
AcDbPolyline
 90
       36
 70
     1
 43
0.0
 10
9.5
 20
-14.0
 10
9.499999999999994
 20
27.24999999999999
 10
8.499999999999994
 20
27.24999999999999
 10
8.5
 20
35.74999999999999
 10
9.5
 20
35.74999999999999
 10
9.5
 20
77.0
 10
7.5
 20
77.0
 10
7.5
 20
63.0
 10
3.5
 20
63.0
 10
3.5
 20
77.0
 10
1.5
 20
77.0
 10
1.5
 20
63.0
 10
0.0000000000000003
 20
63.0
 10
0.0
 20
57.75
 10
1.0
 20
57.75
 10
0.9999999999999992
 20
49.25
 10
0.0
 20
49.25
 10
0.0
 20
41.0
 10
-36.0
 20
41.0
 10
-36.0
 20
35.75
 10
-35.0
 20
35.75
 10
-35.0
 20
27.25
 10
-36.0
 20
27.25
 10
-36.0
 20
22.0
 10
0.0
 20
22.0
 10
0.0
 20
13.75
 10
0.9999999999999955
 20
13.75
 10
0.9999999999999944
 20
5.25
 10
-0.0000000000000053
 20
5.25
 10
-0.0000000000000063
 20
0.0
 10
1.5
 20
0.0
 10
1.5
 20
-14.0
 10
3.5
 20
-14.0
 10
3.5
 20
0.0
 10
7.5
 20
0.0
 10
7.5
 20
-14.0
  0
ENDBLK
  5
107
330
102
100
AcDbEntity
  8
0
100
AcDbBlockEnd
  0
BLOCK
  5
140
330
13D
100
AcDbEntity
  8
0
100
AcDbBlockBegin
  2
TS P 50
 70
     0
 10
0.0
 20
0.0
 30
0.0
  3
TS P 50
  1

  0
REGION
  5
141
330
13D
100
AcDbEntity
  8
KONTUR
100
AcDbModelerGeometry
 70
     1
  1
koo llo n o         
  1
ni ^ *+0;:,4 ^ *+0\^ [ nh ^ LR nmqoqnqfnj QK o  
  1
n fqfffffffffffffffj:rooh n:rono 
  1
=0;& {n {m {rn {rn |
  1
-:9@)+r:&:r>++-6= {rn {rn {rn {o {l {k |
  1
3*2/ {j {rn {i {o |
  1
:&:@-:961:2:1+ {rn j 8-6;  n l +-6 n k ,*-9 o l >;5 o k 8->; o f /0,+<7:<4 o k ,+03 kqigjfiifigjlilhh k 1+03 lo k ;,63 o g 93>+1:,, o h /6'>-:> o k 72>' o i 8-6;>- o j 28-6; looo j *8-6; o j )8-6; o no :1;@96:3;, |
  1
):-+:'@+:2/3>+: {rn l o n g |
  1
-:9@)+r:&:r>++-6= {rn {rn {rn {m {l {k |
  1
,7:33 {h {rn {rn {g {rn {m |
  1
-:9@)+r:&:r>++-6= {rn {rn {rn {i {l {k |
  1
9><: {f {rn {no {i {rn {nn 90-(>-; ;0*=3: 0*+ |
  1
92:,7r:&:r>++-6= {rn {nm {rn {g |
  1
300/ {rn {nl {nk {g |
  1
/3>1:r,*-9><: {rn lnqokimmojkknomijl kgqhjhoklnkimmkihj o o o n rn o o -:):-,:@) V V V V |
  1
-:9@)+r:&:r>++-6= {rn {rn {f {g {l {k |
  1
300/ {rn {rn {nj {g |
  1
<0:;8: {rn {ni {nh {rn {ng 90-(>-; {no {rn |
  1
<0:;8: {rn {nf {mo {rn {mn -:):-,:; {nl {rn |
  1
<0:;8: {rn {mm {nk {rn {ml 90-(>-; {no {rn |
  1
<0:;8: {rn {nk {mk {rn {mj 90-(>-; {no {rn |
  1
:;8: {rn {mi {mh {nk {mg 90-(>-; |
  1
<0:;8: {rn {mf {nj {rn {lo -:):-,:; {nl {rn |
  1
<0:;8: {rn {nj {ln {rn {lm 90-(>-; {nl {rn |
  1
:;8: {rn {ll {lk {nj {lj 90-(>-; |
  1
<0:;8: {rn {li {ni {rn {lh -:):-,:; {no {rn |
  1
:;8: {rn {mh {lg {ni {lf 90-(>-; |
  1
<0:;8: {rn {nh {ko {rn {kn 90-(>-; {no {rn |
  1
:;8: {rn {km {mi {nh {kl 90-(>-; |
  1
):-+:' {rn {ng {kk |
  1
):-+:' {rn {ng {kj |
  1
,+->687+r<*-): {rn nh gqffffffffffffiomn o rn rkqglnifoiolnigignn:ronk o Y o Y nj |
  1
<0:;8: {rn {ki {nf {rn {kh -:):-,:; {nl {rn |
  1
:;8: {rn {kg {ll {nf {kf 90-(>-; |
  1
<0:;8: {rn {mo {jo {rn {jn 90-(>-; {nl {rn |
  1
:;8: {rn {jm {lk {mo {jl 90-(>-; |
  1
):-+:' {rn {lo {jk |
  1
):-+:' {rn {mn {jj |
  1
,+->687+r<*-): {rn mhqhkffffffffffggi klqkgllmghonnlmifm o rn o o V V |
  1
<0:;8: {rn {ji {mm {rn {jh -:):-,:; {no {rn |
  1
:;8: {rn {jg {lg {mm {jf 90-(>-; |
  1
):-+:' {rn {lh {io |
  1
,+->687+r<*-): {rn m gqfffffffffffgghhl o rjqflnkghngjkhjkmjh:ronk n o Y o Y lkqjoooooooooonnml |
  1
<0:;8: {rn {mk {in {rn {im 90-(>-; {no {rn |
  1
:;8: {rn {il {km {mk {ik 90-(>-; |
  1
):-+:' {rn {mj {ij |
  1
,+->687+r<*-): {rn nh klqj o o rn o Y o Y lkqjooooooooooolfg |
  1
/061+ {rn nh gqffffffffffffiomn o |
  1
/061+ {rn m gqfffffffffffgghhl o |
  1
<0:;8: {rn {ii {mf {rn {ih 90-(>-; {nl {rn |
  1
:;8: {rn {ig {kg {mf {if 90-(>-; |
  1
):-+:' {rn {kh {ho |
  1
,+->687+r<*-): {rn mhqhkffffffffffggi kjqkgllmghonnlmifm o o rn o V V |
  1
<0:;8: {rn {ln {hn {rn {hm 90-(>-; {nl {rn |
  1
:;8: {rn {hl {jm {ln {hk 90-(>-; |
  1
):-+:' {rn {lm {hj |
  1
,+->687+r<*-): {rn nf kjqj o o n o V V |
  1
/061+ {rn mhqhkffffffffffggi klqkgllmghonnlmifm o |
  1
/061+ {rn nf klqkgllmghonnlloin o |
  1
<0:;8: {rn {hi {li {rn {hh -:):-,:; {no {rn |
  1
:;8: {rn {hg {jg {li {hf 90-(>-; |
  1
):-+:' {rn {jh {go |
  1
,+->687+r<*-): {rn jqmj lhqjoooooooooooonk o rn o o V V |
  1
/061+ {rn nqfffffffffffgngn lhqjoooooooooooonk o |
  1
<0:;8: {rn {ko {gn {rn {gm 90-(>-; {no {rn |
  1
:;8: {rn {gl {il {ko {gk 90-(>-; |
  1
):-+:' {rn {im {gj |
  1
,+->687+r<*-): {rn nlqhj lhqjoooooooooooonk o n o o V V |
  1
/061+ {rn nhqooooooooooongnf lhqjoooooooooooonk o |
  1
<0:;8: {rn {gi {ki {rn {gh 90-(>-; {nl {rn |
  1
:;8: {rn {ig {gg {ki {gf 90-(>-; |
  1
):-+:' {rn {ih {fo |
  1
,+->687+r<*-): {rn mkqkfffffffffffggi kjqkgllmghonnlmifm o n o o V V |
  1
/061+ {rn mhqhkffffffffffggi kjqkgllmghonnlmifm o |
  1
<0:;8: {rn {jo {fn {rn {fm 90-(>-; {nl {rn |
  1
:;8: {rn {fl {hl {jo {fk 90-(>-; |
  1
):-+:' {rn {jn {fj |
  1
,+->687+r<*-): {rn nlqhj o o n o o V V |
  1
/061+ {rn nf o o |
  1
<0:;8: {rn {fi {ji {rn {fh 90-(>-; {no {rn |
  1
:;8: {rn {fg {hg {ji {ff 90-(>-; |
  1
):-+:' {rn {hh {noo |
  1
,+->687+r<*-): {rn jqmj lfqjniihnmfggihghh o o rn o V V |
  1
/061+ {rn jqmj lhqjoooooooooooonk o |
  1
<0:;8: {rn {in {fi {rn {non 90-(>-; {no {rn |
  1
:;8: {rn {nom {gl {in {nol 90-(>-; |
  1
):-+:' {rn {gm {nok |
  1
,+->687+r<*-): {rn nlqhj lfqjniihnmfggihghh o o rn o V V |
  1
/061+ {rn nlqhj lhqjoooooooooooonk o |
  1
<0:;8: {rn {noj {ii {rn {noi -:):-,:; {nl {rn |
  1
:;8: {rn {gg {noh {ii {nog 90-(>-; |
  1
):-+:' {rn {gh {nof |
  1
,+->687+r<*-): {rn mkqkfffffffffffggi kjqkgllmghonnlmhoi o o n o V V |
  1
/061+ {rn mkqkfffffffffffggi kjqkgllmghonnlmhoi o |
  1
<0:;8: {rn {hn {nno {rn {nnn -:):-,:; {nl {rn |
  1
:;8: {rn {nnm {fl {hn {nnl 90-(>-; |
  1
):-+:' {rn {hm {nnk |
  1
,+->687+r<*-): {rn nlqhj m o o rn o V V |
  1
/061+ {rn nlqhj o o |
  1
<0:;8: {rn {gn {hi {rn {nnj 90-(>-; {no {rn |
  1
:;8: {rn {fg {nni {hi {lf 90-(>-; |
  1
):-+:' {rn {fh {nnh |
  1
,+->687+r<*-): {rn nqfffffffffffgngn lfqjniihnmfggihghh o n o o V V |
  1
/061+ {rn jqmj lfqjniihnmfggihghh o |
  1
:;8: {rn {nng {nom {gn {kl 90-(>-; |
  1
):-+:' {rn {gm {nnf |
  1
,+->687+r<*-): {rn nhqooooooooooongnf lfqjniihnmfggihghh o rn o o V V |
  1
/061+ {rn nlqhj lfqjniihnmfggihghh o |
  1
<0:;8: {rn {nmo {gi {rn {nmn -:):-,:; {nl {rn |
  1
:;8: {rn {nmm {noh {gi {nml 90-(>-; |
  1
):-+:' {rn {noi {nmk |
  1
,+->687+r<*-): {rn mkqkfffffffffffggi joqkiiijhkommikmki o n rnqgfkhgoimgifliooj:ronj o V V |
  1
/061+ {rn mkqkfffffffffffggi joqkiiijhkommikmki o |
  1
<0:;8: {rn {fn {nmj {rn {nmi -:):-,:; {nl {rn |
  1
:;8: {rn {nnm {nmh {fn {nmg 90-(>-; |
  1
):-+:' {rn {fm {nmf |
  1
,+->687+r<*-): {rn nh m o rn o o V V |
  1
/061+ {rn nlqhj m o |
  1
:;8: {rn {nni {nng {fi {nlo 90-(>-; |
  1
):-+:' {rn {nnj {nln |
  1
/061+ {rn nqfffffffffffgngn lfqjniihnmfggihghh o |
  1
):-+:' {rn {non {nlm |
  1
/061+ {rn nhqooooooooooongnf lfqjniihnmfggihghh o |
  1
<0:;8: {rn {nll {noj {rn {nlk -:):-,:; {nl {rn |
  1
:;8: {rn {nlj {nmm {noj {nli 90-(>-; |
  1
):-+:' {rn {nmn {nlh |
  1
,+->687+r<*-): {rn lfqkfffffffffffggi kjqkgllmghonnlmifm o o n o V V |
  1
/061+ {rn lfqkfffffffffffggi joqkiiijhkommikmlm o |
  1
<0:;8: {rn {nno {nlg {rn {nlf 90-(>-; {nl {rn |
  1
:;8: {rn {nmh {nko {nno {nkn 90-(>-; |
  1
):-+:' {rn {nmi {nkm |
  1
,+->687+r<*-): {rn nh mqooooooooooooomnl o o n o V V |
  1
/061+ {rn nh m o |
  1
,+->687+r<*-): {rn nqfffffffffffhfjli klqj o n o o Y o Y njqooooooooooomoki |
  1
/061+ {rn nqfffffffffffhfjli klqj o |
  1
/061+ {rn nh klqj o |
  1
<0:;8: {rn {nkl {nmo {rn {nkk -:):-,:; {nl {rn |
  1
:;8: {rn {nkj {nlj {nmo {nki 90-(>-; |
  1
):-+:' {rn {nlk {nkh |
  1
,+->687+r<*-): {rn liqmkffffffffffggi kjqkgllmghonnlmifm o n o o V V |
  1
/061+ {rn lfqkfffffffffffggi kjqkgllmghonnlmifm o |
  1
<0:;8: {rn {nmj {nkg {rn {nkf 90-(>-; {nl {rn |
  1
:;8: {rn {njo {nko {nmj {njn 90-(>-; |
  1
):-+:' {rn {nmi {njm |
  1
,+->687+r<*-): {rn nh iqfgllmghonnlnjkoi o rn o o V V |
  1
/061+ {rn nh iqfgllmghonnlnjkoi o |
  1
<0:;8: {rn {njl {nll {rn {njk -:):-,:; {nl {rn |
  1
:;8: {rn {njj {nkj {nll {nji 90-(>-; |
  1
):-+:' {rn {nkk {njh |
  1
,+->687+r<*-): {rn liqmkffffffffffggi klqkgllmghonnlmifm o o n o V V |
  1
/061+ {rn liqmkffffffffffggi kjqkgllmghonnlmifm o |
  1
<0:;8: {rn {nlg {njg {rn {njf 90-(>-; {nl {rn |
  1
:;8: {rn {nio {njo {nlg {nin 90-(>-; |
  1
):-+:' {rn {nlf {nim |
  1
,+->687+r<*-): {rn m m o o n o V V |
  1
/061+ {rn m iqfgllmghonnlnjkoi o |
  1
<0:;8: {rn {nil {nkl {rn {nik 90-(>-; {nl {rn |
  1
:;8: {rn {nij {njj {nkl {nii 90-(>-; |
  1
):-+:' {rn {njk {nih |
  1
,+->687+r<*-): {rn knqkfffffffffffggi klqkgllmghonnlmifm o rn o o V V |
  1
/061+ {rn liqmkffffffffffggi klqkgllmghonnlmifm o |
  1
<0:;8: {rn {nkg {nig {rn {nif 90-(>-; {nl {rn |
  1
:;8: {rn {nho {nio {nkg {nhn 90-(>-; |
  1
):-+:' {rn {nkf {nhm |
  1
,+->687+r<*-): {rn jqmj m o rn o o V V |
  1
/061+ {rn m m o |
  1
<0:;8: {rn {nhl {njl {rn {nhk -:):-,:; {nl {rn |
  1
:;8: {rn {nij {nhj {njl {nhi 90-(>-; |
  1
):-+:' {rn {njk {nhh |
  1
,+->687+r<*-): {rn knqkfffffffffffhhl jmqkgllmghonnlmmij o nqmilnghogjhfjhflj:ronk rn o V V |
  1
/061+ {rn knqkfffffffffffggi klqkgllmghonnlmifm o |
  1
<0:;8: {rn {njg {nhg {rn {nhf -:):-,:; {nl {rn |
  1
:;8: {rn {ngo {nho {njg {ngn 90-(>-; |
  1
):-+:' {rn {njf {ngm |
  1
,+->687+r<*-): {rn jqmj o o o n o V V |
  1
/061+ {rn jqmj m o |
  1
<0:;8: {rn {ngl {nil {rn {ngk -:):-,:; {nl {rn |
  1
:;8: {rn {ngj {nhj {nil {ngi 90-(>-; |
  1
):-+:' {rn {nik {ngh |
  1
,+->687+r<*-): {rn knqj kkqkgllmghonnlnjjj o n rjqligjkjnnkilngihf:ronk o V V |
  1
/061+ {rn knqj kkqkgllmghonnlnjjj o |
  1
<0:;8: {rn {nig {ngg {rn {ngf 90-(>-; {nl {rn |
  1
:;8: {rn {ngo {nfo {nig {nfn 90-(>-; |
  1
):-+:' {rn {nif {nfm |
  1
,+->687+r<*-): {rn o o o n o o V V |
  1
/061+ {rn jqmj o o |
  1
<0:;8: {rn {nfl {nhl {rn {nfk -:):-,:; {nl {rn |
  1
:;8: {rn {nfj {ngj {nhl {nfi 90-(>-; |
  1
):-+:' {rn {nhk {nfh |
  1
,+->687+r<*-): {rn jj kiqkffffffffffgghh o rmqgngihjkjmjffmkjk:ronk rn o V V |
  1
/061+ {rn jj kkqkgllmghonnlogl o |
  1
<0:;8: {rn {nhg {nfg {rn {nff 90-(>-; {nl {rn |
  1
:;8: {rn {moo {nfo {nhg {mon 90-(>-; |
  1
):-+:' {rn {nhf {mom |
  1
,+->687+r<*-): {rn o o o o n o V V |
  1
/061+ {rn o o o |
  1
<0:;8: {rn {mol {ngl {rn {mok 90-(>-; {nl {rn |
  1
:;8: {rn {moj {nfj {ngl {nii 90-(>-; |
  1
):-+:' {rn {ngk {moi |
  1
,+->687+r<*-): {rn knqj kiqkfffffffffffiom o n rjqligjkjnnkilngihf:ronk o V V |
  1
/061+ {rn jj kiqkffffffffffgghh o |
  1
<0:;8: {rn {ngg {moh {rn {mog 90-(>-; {nl {rn |
  1
:;8: {rn {mof {moo {ngg {mno 90-(>-; |
  1
):-+:' {rn {nff {mnn |
  1
,+->687+r<*-): {rn rgqhkffffffffffggil klqkgllmghonnlmifm o n o o V V |
  1
/061+ {rn o klqkgllmghonnlmifm o |
  1
<0:;8: {rn {mnm {nfl {rn {mnl -:):-,:; {nl {rn |
  1
:;8: {rn {moj {mnk {nfl {mnj 90-(>-; |
  1
):-+:' {rn {nfk {mni |
  1
/061+ {rn knqj kiqkfffffffffffiom o |
  1
<0:;8: {rn {nfg {mnh {rn {mng -:):-,:; {nl {rn |
  1
:;8: {rn {mnf {mof {nfg {mmo 90-(>-; |
  1
):-+:' {rn {mog {mmn |
  1
,+->687+r<*-): {rn rgqhkffffffffffggil kjqkgllmghonnlmifm o o rn o V V |
  1
/061+ {rn rgqhkffffffffffggil klqkgllmghonnlmifm o |
  1
<0:;8: {rn {mmm {mol {rn {mml 90-(>-; {nl {rn |
  1
:;8: {rn {mmk {mnk {mol {mmj 90-(>-; |
  1
):-+:' {rn {mok {mmi |
  1
,+->687+r<*-): {rn knqj joqkiiijhkommikmng o n rjqligjkjnnkilngihf:ronk o V V |
  1
/061+ {rn knqj joqkiiijhkommikmng o |
  1
<0:;8: {rn {moh {mmh {rn {mmg -:):-,:; {nl {rn |
  1
:;8: {rn {mnf {mmf {moh {mlo 90-(>-; |
  1
):-+:' {rn {mng {mln |
  1
,+->687+r<*-): {rn rjqkfffffffffffggil kjqkgllmghonnlmifm o rn o o V V |
  1
/061+ {rn rgqhkffffffffffggil kjqkgllmghonnlmifm o |
  1
<0:;8: {rn {mlm {mnm {rn {mll 90-(>-; {nl {rn |
  1
:;8: {rn {mmk {mlk {mnm {mlj 90-(>-; |
  1
):-+:' {rn {mnl {mli |
  1
,+->687+r<*-): {rn jj jmqkgllmghonnlnjkn o rmqgngihjkjmjffmkjk:ronk rn o V V |
  1
/061+ {rn jj joqkiiijhkommilkfl o |
  1
<0:;8: {rn {mnh {mlh {rn {mlg 90-(>-; {nl {rn |
  1
:;8: {rn {mmf {mlf {mnh {mko 90-(>-; |
  1
):-+:' {rn {mmg {mkn |
  1
,+->687+r<*-): {rn rjqkfffffffffffggil kjqkgllmghonnlmhoi o o n o V V |
  1
/061+ {rn rjqkfffffffffffggil kjqkgllmghonnlmhoi o |
  1
<0:;8: {rn {mkm {mmm {rn {mkl 90-(>-; {nl {rn |
  1
:;8: {rn {mlk {mkk {mmm {mkj 90-(>-; |
  1
):-+:' {rn {mml {mki |
  1
,+->687+r<*-): {rn nf jmqkgllmghonnlnjkn o rn o o V V |
  1
/061+ {rn jj jmqkgllmghonnlnjkn o |
  1
<0:;8: {rn {mmh {mkh {rn {mkg 90-(>-; {nl {rn |
  1
:;8: {rn {mkf {mlf {mmh {mjo 90-(>-; |
  1
):-+:' {rn {mlg {mjn |
  1
,+->687+r<*-): {rn rjqkfffffffffffggil joqkiiijhkommikmki o rn rnqgfkhgoimgifliooj:ronj o V V |
  1
/061+ {rn rjqkfffffffffffggil joqkiiijhkommikmki o |
  1
<0:;8: {rn {mjm {mlm {rn {mjl 90-(>-; {nl {rn |
  1
:;8: {rn {mkk {mjk {mlm {mjj 90-(>-; |
  1
):-+:' {rn {mll {mji |
  1
,+->687+r<*-): {rn nlqhj jmqkgllmghonnlnjkn o o rn o V V |
  1
/061+ {rn nlqhj jmqkgllmghonnlnjkn o |
  1
<0:;8: {rn {mlh {mjh {rn {mjg 90-(>-; {nl {rn |
  1
:;8: {rn {mjf {mkf {mlh {mio 90-(>-; |
  1
):-+:' {rn {mkg {min |
  1
,+->687+r<*-): {rn rmoqkfffffffffffggi kjqkgllmghonnlmifm o o n o V V |
  1
/061+ {rn rmoqkfffffffffffggi joqkiiijhkommikmlm o |
  1
<0:;8: {rn {mim {mkm {rn {mil 90-(>-; {nl {rn |
  1
:;8: {rn {mjk {mik {mkm {mij 90-(>-; |
  1
):-+:' {rn {mkl {mii |
  1
,+->687+r<*-): {rn nlqhj joqkgllmghonnlnjkn o n o o V V |
  1
/061+ {rn nlqhj joqkgllmghonnlnjkn o |
  1
<0:;8: {rn {mkh {mih {rn {mig 90-(>-; {nl {rn |
  1
:;8: {rn {mif {mjf {mkh {mho 90-(>-; |
  1
):-+:' {rn {mjg {mhn |
  1
,+->687+r<*-): {rn rnhqmkffffffffffggi kjqkgllmghonnlmifm o rn o o V V |
  1
/061+ {rn rmoqkfffffffffffggi kjqkgllmghonnlmifm o |
  1
<0:;8: {rn {mhm {mjm {rn {mhl -:):-,:; {nl {rn |
  1
:;8: {rn {mik {mhk {mjm {mhj 90-(>-; |
  1
):-+:' {rn {mil {mhi |
  1
,+->687+r<*-): {rn nh joqkgllmghonnlnjkn o o rn o V V |
  1
/061+ {rn nh joqkgllmghonnlnjkn o |
  1
<0:;8: {rn {mjh {mhh {rn {mhg 90-(>-; {nl {rn |
  1
:;8: {rn {mhf {mif {mjh {mgo 90-(>-; |
  1
):-+:' {rn {mig {mgn |
  1
,+->687+r<*-): {rn rnhqmkffffffffffggi klqkgllmghonnlmifm o o n o V V |
  1
/061+ {rn rnhqmkffffffffffggi kjqkgllmghonnlmifm o |
  1
<0:;8: {rn {mgm {mim {rn {mgl 90-(>-; {nl {rn |
  1
:;8: {rn {mgk {mhk {mim {mgj 90-(>-; |
  1
):-+:' {rn {mhl {mgi |
  1
,+->687+r<*-): {rn nf kjqj o rn o o V V |
  1
/061+ {rn nh kjqj o |
  1
<0:;8: {rn {mih {mgh {rn {mgg -:):-,:; {nl {rn |
  1
:;8: {rn {mgf {mhf {mih {mfo 90-(>-; |
  1
):-+:' {rn {mhg {mfn |
  1
,+->687+r<*-): {rn rmmqkfffffffffffggi klqkgllmghonnlmifm o n o o V V |
  1
/061+ {rn rnhqmkffffffffffggi klqkgllmghonnlmifm o |
  1
<0:;8: {rn {mfm {mhm {rn {mfl 90-(>-; {nl {rn |
  1
:;8: {rn {mgk {mfk {mhm {mfj 90-(>-; |
  1
):-+:' {rn {mgl {mfi |
  1
,+->687+r<*-): {rn m joqkgllmghonnlnjnm o o rn o V V |
  1
/061+ {rn m kjqkffffffffffffhm o |
  1
<0:;8: {rn {mhh {mfh {rn {mfg 90-(>-; {nl {rn |
  1
:;8: {rn {mgf {mff {mhh {loo 90-(>-; |
  1
):-+:' {rn {mhg {lon |
  1
,+->687+r<*-): {rn rmmqkfffffffffffhhl jmqkgllmghonnlmmij o rnqmilnghogjhfjhflj:ronk rn o V V |
  1
/061+ {rn rmmqkfffffffffffggi klqkgllmghonnlmifm o |
  1
<0:;8: {rn {lom {mgm {rn {lol 90-(>-; {nl {rn |
  1
:;8: {rn {mfk {lok {mgm {loj 90-(>-; |
  1
):-+:' {rn {mfl {loi |
  1
,+->687+r<*-): {rn m joqkgllmghonnlnjkn o n o o V V |
  1
/061+ {rn m joqkgllmghonnlnjkn o |
  1
<0:;8: {rn {mgh {loh {rn {log 90-(>-; {nl {rn |
  1
:;8: {rn {lof {mff {mgh {lno 90-(>-; |
  1
):-+:' {rn {mgg {lnn |
  1
,+->687+r<*-): {rn rmmqj kkqkgllmghonnlnjjj o rn rjqligjkjnnkilngihf:ronk o V V |
  1
/061+ {rn rmmqj kkqkgllmghonnlnjjj o |
  1
<0:;8: {rn {lnm {mfm {rn {lnl 90-(>-; {nl {rn |
  1
:;8: {rn {lok {lnk {mfm {lnj 90-(>-; |
  1
):-+:' {rn {lol {lni |
  1
,+->687+r<*-): {rn jqmj joqkgllmghonnlnjkn o o n o V V |
  1
/061+ {rn jqmj joqkgllmghonnlnjkn o |
  1
<0:;8: {rn {mfh {lnm {rn {lnh 90-(>-; {nl {rn |
  1
:;8: {rn {lng {lof {mfh {lnf 90-(>-; |
  1
):-+:' {rn {mfg {lmo |
  1
,+->687+r<*-): {rn rli kiqkffffffffffgghh o mqgngihjkjmjffmkjk:ronk rn o V V |
  1
/061+ {rn rli kkqkgllmghonnlogl o |
  1
<0:;8: {rn {loh {lom {rn {lmn -:):-,:; {nl {rn |
  1
:;8: {rn {lnk {lmm {lom {lml 90-(>-; |
  1
):-+:' {rn {lnl {lmk |
  1
,+->687+r<*-): {rn o jmqkgllmghonnlnjkn o rn lqmmnnmhoighhfnmog:ronk o V V |
  1
/061+ {rn jqmj jmqkgllmghonnlnjkn o |
  1
:;8: {rn {lmj {lng {loh {mfo 90-(>-; |
  1
):-+:' {rn {log {lmi |
  1
,+->687+r<*-): {rn rmmqj kiqkfffffffffffiom o rn rjqligjkjnnkilngihf:ronk o V V |
  1
/061+ {rn rli kiqkffffffffffgghh o |
  1
:;8: {rn {lmj {lmm {lnm {lmh 90-(>-; |
  1
):-+:' {rn {lmn {lmg |
  1
,+->687+r<*-): {rn rli jmqkgllmghonnlnjkn o mqgngihjkjmjffmkjk:ronk rn o V V |
  1
/061+ {rn rli jmqkgllmghonnlnjkn o |
  1
):-+:' {rn {lnh {lmf |
  1
/061+ {rn rmmqj kiqkfffffffffffiom o |
  1
,+->687+r<*-): {rn rmmqj joqkiiijhkommikmng o rn rjqligjkjnnkilngihf:ronk o V V |
  1
/061+ {rn rli joqkiiijhkommilkfl o |
  1
/061+ {rn rmmqj joqkiiijhkommikmng o |
  0
ENDBLK
  5
142
330
13D
100
AcDbEntity
  8
0
100
AcDbBlockEnd
  0
BLOCK
  5
151
330
150
100
AcDbEntity
  8
0
100
AcDbBlockBegin
  2
*D5
 70
     1
 10
0.0
 20
0.0
 30
0.0
  3
*D5
  1

  0
LINE
  5
153
330
150
100
AcDbEntity
  8
0
  6
Continuous
 62
     0
370
    -2
100
AcDbLine
 10
17.86444135510883
 20
45.43659656936273
 30
0.0
 11
17.86444135510884
 21
101.7886045100042
 31
0.0
  0
LINE
  5
154
330
150
100
AcDbEntity
  8
0
  6
Continuous
 62
     0
370
    -2
100
AcDbLine
 10
70.34777005624039
 20
81.43659656936273
 30
0.0
 11
70.34777005624039
 21
101.7886045100042
 31
0.0
  0
LINE
  5
155
330
150
100
AcDbEntity
  8
0
  6
Continuous
 62
     0
370
    -2
100
AcDbLine
 10
18.04444135510884
 20
101.6086045100042
 30
0.0
 11
43.47610570567461
 21
101.6086045100042
 31
0.0
  0
LINE
  5
156
330
150
100
AcDbEntity
  8
0
  6
Continuous
 62
     0
370
    -2
100
AcDbLine
 10
70.16777005624039
 20
101.6086045100042
 30
0.0
 11
44.73610570567461
 21
101.6086045100042
 31
0.0
  0
SOLID
  5
157
330
150
100
AcDbEntity
  8
0
  6
Continuous
 62
     0
100
AcDbTrace
 10
18.04444135510884
 20
101.6386045100042
 30
0.0
 11
18.04444135510884
 21
101.5786045100042
 31
0.0
 12
17.86444135510884
 22
101.6086045100042
 32
0.0
 13
17.86444135510884
 23
101.6086045100042
 33
0.0
  0
SOLID
  5
158
330
150
100
AcDbEntity
  8
0
  6
Continuous
 62
     0
100
AcDbTrace
 10
70.16777005624039
 20
101.6386045100042
 30
0.0
 11
70.16777005624039
 21
101.5786045100042
 31
0.0
 12
70.34777005624039
 22
101.6086045100042
 32
0.0
 13
70.34777005624039
 23
101.6086045100042
 33
0.0
  0
MTEXT
  5
159
330
150
100
AcDbEntity
  8
0
  6
Continuous
 62
     0
100
AcDbMText
 10
44.10610570567461
 20
101.6086045100042
 30
0.0
 40
0.18
 41
0.0
 71
     5
 72
     1
  1
\A1;52.4833
 73
     1
 44
1.0
1001
ACAD
1000
MTEXTBEGIN
1070
    73
1070
     1
1070
    44
1040
1.0
1070
    74
1070
     0
1000
MTEXTEND
  0
POINT
  5
15A
330
150
100
AcDbEntity
  8
Defpoints
  6
Continuous
 62
     0
100
AcDbPoint
 10
17.86444135510883
 20
45.37409656936273
 30
0.0
  0
POINT
  5
15B
330
150
100
AcDbEntity
  8
Defpoints
  6
Continuous
 62
     0
100
AcDbPoint
 10
70.34777005624039
 20
81.37409656936274
 30
0.0
  0
POINT
  5
15C
330
150
100
AcDbEntity
  8
Defpoints
  6
Continuous
 62
     0
100
AcDbPoint
 10
70.34777005624039
 20
101.6086045100042
 30
0.0
  0
ENDBLK
  5
152
330
150
100
AcDbEntity
  8
0
100
AcDbBlockEnd
  0
BLOCK
  5
15F
330
15E
100
AcDbEntity
  8
0
100
AcDbBlockBegin
  2
*D6
 70
     1
 10
0.0
 20
0.0
 30
0.0
  3
*D6
  1

  0
LINE
  5
161
330
15E
100
AcDbEntity
  8
0
  6
Continuous
 62
     0
370
    -2
100
AcDbLine
 10
9.5
 20
77.0625
 30
0.0
 11
9.5
 21
83.07574842208225
 31
0.0
  0
LINE
  5
162
330
15E
100
AcDbEntity
  8
0
  6
Continuous
 62
     0
370
    -2
100
AcDbLine
 10
-36.0
 20
41.0625
 30
0.0
 11
-36.0
 21
83.07574842208225
 31
0.0
  0
LINE
  5
163
330
15E
100
AcDbEntity
  8
0
  6
Continuous
 62
     0
370
    -2
100
AcDbLine
 10
9.32
 20
82.89574842208224
 30
0.0
 11
-12.665
 21
82.89574842208224
 31
0.0
  0
LINE
  5
164
330
15E
100
AcDbEntity
  8
0
  6
Continuous
 62
     0
370
    -2
100
AcDbLine
 10
-35.82
 20
82.89574842208224
 30
0.0
 11
-13.835
 21
82.89574842208224
 31
0.0
  0
SOLID
  5
165
330
15E
100
AcDbEntity
  8
0
  6
Continuous
 62
     0
100
AcDbTrace
 10
9.32
 20
82.92574842208225
 30
0.0
 11
9.32
 21
82.86574842208224
 31
0.0
 12
9.5
 22
82.89574842208224
 32
0.0
 13
9.5
 23
82.89574842208224
 33
0.0
  0
SOLID
  5
166
330
15E
100
AcDbEntity
  8
0
  6
Continuous
 62
     0
100
AcDbTrace
 10
-35.82
 20
82.92574842208225
 30
0.0
 11
-35.82
 21
82.86574842208224
 31
0.0
 12
-36.0
 22
82.89574842208224
 32
0.0
 13
-36.0
 23
82.89574842208224
 33
0.0
  0
MTEXT
  5
167
330
15E
100
AcDbEntity
  8
0
  6
Continuous
 62
     0
100
AcDbMText
 10
-13.25
 20
82.89574842208224
 30
0.0
 40
0.18
 41
0.0
 71
     5
 72
     1
  1
\A1;45.5000
 73
     1
 44
1.0
1001
ACAD
1000
MTEXTBEGIN
1070
    73
1070
     1
1070
    44
1040
1.0
1070
    74
1070
     0
1000
MTEXTEND
  0
POINT
  5
168
330
15E
100
AcDbEntity
  8
Defpoints
  6
Continuous
 62
     0
100
AcDbPoint
 10
9.5
 20
77.0
 30
0.0
  0
POINT
  5
169
330
15E
100
AcDbEntity
  8
Defpoints
  6
Continuous
 62
     0
100
AcDbPoint
 10
-36.0
 20
41.0
 30
0.0
  0
POINT
  5
16A
330
15E
100
AcDbEntity
  8
Defpoints
  6
Continuous
 62
     0
100
AcDbPoint
 10
-36.0
 20
82.89574842208224
 30
0.0
  0
ENDBLK
  5
160
330
15E
100
AcDbEntity
  8
0
100
AcDbBlockEnd
  0
BLOCK
  5
1B5
330
1B4
100
AcDbEntity
  8
0
100
AcDbBlockBegin
  2
*D8
 70
     1
 10
0.0
 20
0.0
 30
0.0
  3
*D8
  1

  0
LINE
  5
1B7
330
1B4
100
AcDbEntity
  8
0
  6
Continuous
 62
     0
370
    -2
100
AcDbLine
 10
111.5977700562404
 20
42.91992527049425
 30
0.0
 11
111.5977700562404
 21
46.40491134875946
 31
0.0
  0
LINE
  5
1B8
330
1B4
100
AcDbEntity
  8
0
  6
Continuous
 62
     0
370
    -2
100
AcDbLine
 10
120.0977700562404
 20
42.91992527049425
 30
0.0
 11
120.0977700562404
 21
46.40491134875946
 31
0.0
  0
LINE
  5
1B9
330
1B4
100
AcDbEntity
  8
0
  6
Continuous
 62
     0
370
    -2
100
AcDbLine
 10
111.7777700562404
 20
46.22491134875946
 30
0.0
 11
115.3527700562404
 21
46.22491134875946
 31
0.0
  0
LINE
  5
1BA
330
1B4
100
AcDbEntity
  8
0
  6
Continuous
 62
     0
370
    -2
100
AcDbLine
 10
119.9177700562404
 20
46.22491134875946
 30
0.0
 11
116.3427700562404
 21
46.22491134875946
 31
0.0
  0
SOLID
  5
1BB
330
1B4
100
AcDbEntity
  8
0
  6
Continuous
 62
     0
100
AcDbTrace
 10
111.7777700562404
 20
46.25491134875946
 30
0.0
 11
111.7777700562404
 21
46.19491134875945
 31
0.0
 12
111.5977700562404
 22
46.22491134875946
 32
0.0
 13
111.5977700562404
 23
46.22491134875946
 33
0.0
  0
SOLID
  5
1BC
330
1B4
100
AcDbEntity
  8
0
  6
Continuous
 62
     0
100
AcDbTrace
 10
119.9177700562404
 20
46.25491134875946
 30
0.0
 11
119.9177700562404
 21
46.19491134875945
 31
0.0
 12
120.0977700562404
 22
46.22491134875946
 32
0.0
 13
120.0977700562404
 23
46.22491134875946
 33
0.0
  0
MTEXT
  5
1BD
330
1B4
100
AcDbEntity
  8
0
  6
Continuous
 62
     0
100
AcDbMText
 10
115.8477700562404
 20
46.22491134875946
 30
0.0
 40
0.18
 41
0.0
 71
     5
 72
     1
  1
\A1;8.5000
 73
     1
 44
1.0
1001
ACAD
1000
MTEXTBEGIN
1070
    73
1070
     1
1070
    44
1040
1.0
1070
    74
1070
     0
1000
MTEXTEND
  0
POINT
  5
1BE
330
1B4
100
AcDbEntity
  8
Defpoints
  6
Continuous
 62
     0
100
AcDbPoint
 10
111.5977700562404
 20
42.85742527049424
 30
0.0
  0
POINT
  5
1BF
330
1B4
100
AcDbEntity
  8
Defpoints
  6
Continuous
 62
     0
100
AcDbPoint
 10
120.0977700562404
 20
42.85742527049424
 30
0.0
  0
POINT
  5
1C0
330
1B4
100
AcDbEntity
  8
Defpoints
  6
Continuous
 62
     0
100
AcDbPoint
 10
120.0977700562404
 20
46.22491134875946
 30
0.0
  0
ENDBLK
  5
1B6
330
1B4
100
AcDbEntity
  8
0
100
AcDbBlockEnd
  0
BLOCK
  5
1C5
330
1C4
100
AcDbEntity
  8
0
100
AcDbBlockBegin
  2
*D9
 70
     1
 10
0.0
 20
0.0
 30
0.0
  3
*D9
  1

  0
LINE
  5
1C7
330
1C4
100
AcDbEntity
  8
0
  6
Continuous
 62
     0
370
    -2
100
AcDbLine
 10
70.28527005624036
 20
-9.625903430637272
 30
0.0
 11
64.54097406564364
 21
-9.62590343063727
 31
0.0
  0
LINE
  5
1C8
330
1C4
100
AcDbEntity
  8
0
  6
Continuous
 62
     0
370
    -2
100
AcDbLine
 10
83.78527005624036
 20
3.874096569362713
 30
0.0
 11
64.54097406564364
 21
3.874096569362718
 31
0.0
  0
LINE
  5
1C9
330
1C4
100
AcDbEntity
  8
0
  6
Continuous
 62
     0
370
    -2
100
AcDbLine
 10
64.72097406564365
 20
-9.445903430637271
 30
0.0
 11
64.72097406564365
 21
-3.055903430637276
 31
0.0
  0
LINE
  5
1CA
330
1C4
100
AcDbEntity
  8
0
  6
Continuous
 62
     0
370
    -2
100
AcDbLine
 10
64.72097406564365
 20
3.694096569362718
 30
0.0
 11
64.72097406564365
 21
-2.695903430637275
 31
0.0
  0
SOLID
  5
1CB
330
1C4
100
AcDbEntity
  8
0
  6
Continuous
 62
     0
100
AcDbTrace
 10
64.69097406564364
 20
-9.445903430637271
 30
0.0
 11
64.75097406564365
 21
-9.445903430637271
 31
0.0
 12
64.72097406564365
 22
-9.62590343063727
 32
0.0
 13
64.72097406564365
 23
-9.62590343063727
 33
0.0
  0
SOLID
  5
1CC
330
1C4
100
AcDbEntity
  8
0
  6
Continuous
 62
     0
100
AcDbTrace
 10
64.69097406564364
 20
3.694096569362718
 30
0.0
 11
64.75097406564365
 21
3.694096569362718
 31
0.0
 12
64.72097406564365
 22
3.874096569362718
 32
0.0
 13
64.72097406564365
 23
3.874096569362718
 33
0.0
  0
MTEXT
  5
1CD
330
1C4
100
AcDbEntity
  8
0
  6
Continuous
 62
     0
100
AcDbMText
 10
64.72097406564365
 20
-2.875903430637265
 30
0.0
 40
0.18
 41
0.0
 71
     5
 72
     1
  1
\A1;13.5000
 73
     1
 44
1.0
1001
ACAD
1000
MTEXTBEGIN
1070
    73
1070
     1
1070
    44
1040
1.0
1070
    74
1070
     0
1000
MTEXTEND
  0
POINT
  5
1CE
330
1C4
100
AcDbEntity
  8
Defpoints
  6
Continuous
 62
     0
100
AcDbPoint
 10
70.34777005624036
 20
-9.625903430637272
 30
0.0
  0
POINT
  5
1CF
330
1C4
100
AcDbEntity
  8
Defpoints
  6
Continuous
 62
     0
100
AcDbPoint
 10
83.84777005624036
 20
3.874096569362713
 30
0.0
  0
POINT
  5
1D0
330
1C4
100
AcDbEntity
  8
Defpoints
  6
Continuous
 62
     0
100
AcDbPoint
 10
64.72097406564365
 20
3.874096569362718
 30
0.0
  0
ENDBLK
  5
1C6
330
1C4
100
AcDbEntity
  8
0
100
AcDbBlockEnd
  0
BLOCK
  5
1D3
330
1D2
100
AcDbEntity
  8
0
100
AcDbBlockBegin
  2
*D10
 70
     1
 10
0.0
 20
0.0
 30
0.0
  3
*D10
  1

  0
LINE
  5
1E0
330
1D2
100
AcDbEntity
  8
0
  6
Continuous
 62
     0
370
    -2
100
AcDbLine
 10
69.59777005624037
 20
-9.625903430637272
 30
0.0
 11
54.09975541130129
 21
-9.625903430637267
 31
0.0
  0
LINE
  5
1E1
330
1D2
100
AcDbEntity
  8
0
  6
Continuous
 62
     0
370
    -2
100
AcDbLine
 10
83.09777005624036
 20
3.874096569362713
 30
0.0
 11
54.09975541130129
 21
3.874096569362721
 31
0.0
  0
LINE
  5
1E2
330
1D2
100
AcDbEntity
  8
0
  6
Continuous
 62
     0
370
    -2
100
AcDbLine
 10
56.25975541130128
 20
-7.465903430637268
 30
0.0
 11
56.25975541130128
 21
-5.035903430637274
 31
0.0
  0
LINE
  5
1E3
330
1D2
100
AcDbEntity
  8
0
  6
Continuous
 62
     0
370
    -2
100
AcDbLine
 10
56.25975541130128
 20
1.714096569362721
 30
0.0
 11
56.25975541130128
 21
-0.7159034306372744
 31
0.0
  0
SOLID
  5
1E4
330
1D2
100
AcDbEntity
  8
0
  6
Continuous
 62
     0
100
AcDbTrace
 10
55.89975541130129
 20
-7.465903430637268
 30
0.0
 11
56.61975541130129
 21
-7.465903430637268
 31
0.0
 12
56.25975541130128
 22
-9.625903430637269
 32
0.0
 13
56.25975541130128
 23
-9.625903430637269
 33
0.0
  0
SOLID
  5
1E5
330
1D2
100
AcDbEntity
  8
0
  6
Continuous
 62
     0
100
AcDbTrace
 10
55.89975541130129
 20
1.714096569362721
 30
0.0
 11
56.61975541130129
 21
1.71409656936272
 31
0.0
 12
56.25975541130128
 22
3.874096569362721
 32
0.0
 13
56.25975541130128
 23
3.874096569362721
 33
0.0
  0
MTEXT
  5
1E6
330
1D2
100
AcDbEntity
  8
0
  6
Continuous
 62
     0
100
AcDbMText
 10
56.25975541130128
 20
-2.875903430637265
 30
0.0
 40
2.16
 41
0.0
 71
     5
 72
     1
  1
\A1;13.5000
 73
     1
 44
1.0
1001
ACAD
1000
MTEXTBEGIN
1070
    73
1070
     1
1070
    44
1040
1.0
1070
    74
1070
     0
1000
MTEXTEND
  0
POINT
  5
1E7
330
1D2
100
AcDbEntity
  8
Defpoints
  6
Continuous
 62
     0
100
AcDbPoint
 10
70.34777005624036
 20
-9.625903430637272
 30
0.0
  0
POINT
  5
1E8
330
1D2
100
AcDbEntity
  8
Defpoints
  6
Continuous
 62
     0
100
AcDbPoint
 10
83.84777005624036
 20
3.874096569362713
 30
0.0
  0
POINT
  5
1E9
330
1D2
100
AcDbEntity
  8
Defpoints
  6
Continuous
 62
     0
100
AcDbPoint
 10
56.25975541130128
 20
3.874096569362721
 30
0.0
  0
ENDBLK
  5
1D4
330
1D2
100
AcDbEntity
  8
0
100
AcDbBlockEnd
  0
BLOCK
  5
20F
330
20E
100
AcDbEntity
  8
0
100
AcDbBlockBegin
  2
*D11
 70
     1
 10
0.0
 20
0.0
 30
0.0
  3
*D11
  1

  0
LINE
  5
211
330
20E
100
AcDbEntity
  8
0
  6
Continuous
 62
     0
370
    -2
100
AcDbLine
 10
104.8477700562417
 20
4.624096569362706
 30
0.0
 11
104.8477700562417
 21
16.3860263680941
 31
0.0
  0
LINE
  5
212
330
20E
100
AcDbEntity
  8
0
  6
Continuous
 62
     0
370
    -2
100
AcDbLine
 10
106.8477700562418
 20
4.624096569362706
 30
0.0
 11
106.8477700562418
 21
16.3860263680941
 31
0.0
  0
LINE
  5
213
330
20E
100
AcDbEntity
  8
0
  6
Continuous
 62
     0
370
    -2
100
AcDbLine
 10
102.6877700562417
 20
14.2260263680941
 30
0.0
 11
100.5277700562417
 21
14.2260263680941
 31
0.0
  0
LINE
  5
214
330
20E
100
AcDbEntity
  8
0
  6
Continuous
 62
     0
370
    -2
100
AcDbLine
 10
109.0077700562418
 20
14.2260263680941
 30
0.0
 11
111.1677700562418
 21
14.2260263680941
 31
0.0
  0
SOLID
  5
215
330
20E
100
AcDbEntity
  8
0
  6
Continuous
 62
     0
100
AcDbTrace
 10
102.6877700562417
 20
14.58602636809409
 30
0.0
 11
102.6877700562417
 21
13.86602636809409
 31
0.0
 12
104.8477700562417
 22
14.2260263680941
 32
0.0
 13
104.8477700562417
 23
14.2260263680941
 33
0.0
  0
SOLID
  5
216
330
20E
100
AcDbEntity
  8
0
  6
Continuous
 62
     0
100
AcDbTrace
 10
109.0077700562418
 20
14.58602636809409
 30
0.0
 11
109.0077700562418
 21
13.86602636809409
 31
0.0
 12
106.8477700562418
 22
14.2260263680941
 32
0.0
 13
106.8477700562418
 23
14.2260263680941
 33
0.0
  0
MTEXT
  5
217
330
20E
100
AcDbEntity
  8
0
  6
Continuous
 62
     0
100
AcDbMText
 10
116.9277700562418
 20
14.2260263680941
 30
0.0
 40
2.16
 41
0.0
 71
     5
 72
     1
  1
\A1;2.0000
 73
     1
 44
1.0
1001
ACAD
1000
MTEXTBEGIN
1070
    73
1070
     1
1070
    44
1040
1.0
1070
    74
1070
     0
1000
MTEXTEND
  0
POINT
  5
218
330
20E
100
AcDbEntity
  8
Defpoints
  6
Continuous
 62
     0
100
AcDbPoint
 10
104.8477700562417
 20
3.874096569362706
 30
0.0
  0
POINT
  5
219
330
20E
100
AcDbEntity
  8
Defpoints
  6
Continuous
 62
     0
100
AcDbPoint
 10
106.8477700562418
 20
3.874096569362706
 30
0.0
  0
POINT
  5
21A
330
20E
100
AcDbEntity
  8
Defpoints
  6
Continuous
 62
     0
100
AcDbPoint
 10
106.8477700562418
 20
14.2260263680941
 30
0.0
  0
ENDBLK
  5
210
330
20E
100
AcDbEntity
  8
0
100
AcDbBlockEnd
  0
BLOCK
  5
21D
330
21C
100
AcDbEntity
  8
0
100
AcDbBlockBegin
  2
*D12
 70
     1
 10
0.0
 20
0.0
 30
0.0
  3
*D12
  1

  0
LINE
  5
22A
330
21C
100
AcDbEntity
  8
0
  6
Continuous
 62
     0
370
    -2
100
AcDbLine
 10
88.3477700562417
 20
3.874096569362706
 30
0.0
 11
41.44019613652412
 21
3.874096569362719
 31
0.0
  0
LINE
  5
22B
330
21C
100
AcDbEntity
  8
0
  6
Continuous
 62
     0
370
    -2
100
AcDbLine
 10
88.3477700562417
 20
-1.625903430637226
 30
0.0
 11
41.44019613652412
 21
-1.625903430637213
 31
0.0
  0
LINE
  5
22C
330
21C
100
AcDbEntity
  8
0
  6
Continuous
 62
     0
370
    -2
100
AcDbLine
 10
43.60019613652411
 20
6.034096569362719
 30
0.0
 11
43.60019613652411
 21
8.19409656936272
 31
0.0
  0
LINE
  5
22D
330
21C
100
AcDbEntity
  8
0
  6
Continuous
 62
     0
370
    -2
100
AcDbLine
 10
43.60019613652411
 20
-3.785903430637214
 30
0.0
 11
43.60019613652411
 21
-5.945903430637214
 31
0.0
  0
SOLID
  5
22E
330
21C
100
AcDbEntity
  8
0
  6
Continuous
 62
     0
100
AcDbTrace
 10
43.24019613652412
 20
6.034096569362719
 30
0.0
 11
43.96019613652412
 21
6.034096569362719
 31
0.0
 12
43.60019613652411
 22
3.874096569362718
 32
0.0
 13
43.60019613652411
 23
3.874096569362718
 33
0.0
  0
SOLID
  5
22F
330
21C
100
AcDbEntity
  8
0
  6
Continuous
 62
     0
100
AcDbTrace
 10
43.24019613652412
 20
-3.785903430637214
 30
0.0
 11
43.96019613652412
 21
-3.785903430637214
 31
0.0
 12
43.60019613652411
 22
-1.625903430637214
 32
0.0
 13
43.60019613652411
 23
-1.625903430637214
 33
0.0
  0
MTEXT
  5
230
330
21C
100
AcDbEntity
  8
0
  6
Continuous
 62
     0
100
AcDbMText
 10
43.60019613652411
 20
1.124096569362759
 30
0.0
 40
2.16
 41
0.0
 71
     5
 72
     1
  1
\A1;5.5000
 73
     1
 44
1.0
1001
ACAD
1000
MTEXTBEGIN
1070
    73
1070
     1
1070
    44
1040
1.0
1070
    74
1070
     0
1000
MTEXTEND
  0
POINT
  5
231
330
21C
100
AcDbEntity
  8
Defpoints
  6
Continuous
 62
     0
100
AcDbPoint
 10
89.09777005624169
 20
3.874096569362706
 30
0.0
  0
POINT
  5
232
330
21C
100
AcDbEntity
  8
Defpoints
  6
Continuous
 62
     0
100
AcDbPoint
 10
89.09777005624169
 20
-1.625903430637227
 30
0.0
  0
POINT
  5
233
330
21C
100
AcDbEntity
  8
Defpoints
  6
Continuous
 62
     0
100
AcDbPoint
 10
43.60019613652411
 20
-1.625903430637214
 30
0.0
  0
ENDBLK
  5
21E
330
21C
100
AcDbEntity
  8
0
100
AcDbBlockEnd
  0
BLOCK
  5
236
330
235
100
AcDbEntity
  8
0
100
AcDbBlockBegin
  2
*D13
 70
     1
 10
0.0
 20
0.0
 30
0.0
  3
*D13
  1

  0
LINE
  5
238
330
235
100
AcDbEntity
  8
0
  6
Continuous
 62
     0
370
    -2
100
AcDbLine
 10
70.34777005624036
 20
-10.37590343063727
 30
0.0
 11
70.34777005624036
 21
-21.75264592459442
 31
0.0
  0
LINE
  5
239
330
235
100
AcDbEntity
  8
0
  6
Continuous
 62
     0
370
    -2
100
AcDbLine
 10
141.3477700562432
 20
-10.37590343063727
 30
0.0
 11
141.3477700562432
 21
-21.75264592459442
 31
0.0
  0
LINE
  5
23A
330
235
100
AcDbEntity
  8
0
  6
Continuous
 62
     0
370
    -2
100
AcDbLine
 10
72.50777005624036
 20
-19.59264592459442
 30
0.0
 11
99.36777005624179
 21
-19.59264592459442
 31
0.0
  0
LINE
  5
23B
330
235
100
AcDbEntity
  8
0
  6
Continuous
 62
     0
370
    -2
100
AcDbLine
 10
139.1877700562432
 20
-19.59264592459442
 30
0.0
 11
112.3277700562418
 21
-19.59264592459442
 31
0.0
  0
SOLID
  5
23C
330
235
100
AcDbEntity
  8
0
  6
Continuous
 62
     0
100
AcDbTrace
 10
72.50777005624036
 20
-19.23264592459442
 30
0.0
 11
72.50777005624036
 21
-19.95264592459442
 31
0.0
 12
70.34777005624036
 22
-19.59264592459442
 32
0.0
 13
70.34777005624036
 23
-19.59264592459442
 33
0.0
  0
SOLID
  5
23D
330
235
100
AcDbEntity
  8
0
  6
Continuous
 62
     0
100
AcDbTrace
 10
139.1877700562432
 20
-19.23264592459442
 30
0.0
 11
139.1877700562432
 21
-19.95264592459442
 31
0.0
 12
141.3477700562432
 22
-19.59264592459442
 32
0.0
 13
141.3477700562432
 23
-19.59264592459442
 33
0.0
  0
MTEXT
  5
23E
330
235
100
AcDbEntity
  8
0
  6
Continuous
 62
     0
100
AcDbMText
 10
105.8477700562418
 20
-19.59264592459442
 30
0.0
 40
2.16
 41
0.0
 71
     5
 72
     1
  1
\A1;71.0000
 73
     1
 44
1.0
1001
ACAD
1000
MTEXTBEGIN
1070
    73
1070
     1
1070
    44
1040
1.0
1070
    74
1070
     0
1000
MTEXTEND
  0
POINT
  5
23F
330
235
100
AcDbEntity
  8
Defpoints
  6
Continuous
 62
     0
100
AcDbPoint
 10
70.34777005624036
 20
-9.625903430637272
 30
0.0
  0
POINT
  5
240
330
235
100
AcDbEntity
  8
Defpoints
  6
Continuous
 62
     0
100
AcDbPoint
 10
141.3477700562432
 20
-9.625903430637272
 30
0.0
  0
POINT
  5
241
330
235
100
AcDbEntity
  8
Defpoints
  6
Continuous
 62
     0
100
AcDbPoint
 10
141.3477700562432
 20
-19.59264592459442
 30
0.0
  0
ENDBLK
  5
237
330
235
100
AcDbEntity
  8
0
100
AcDbBlockEnd
  0
BLOCK
  5
25A
330
259
100
AcDbEntity
  8
0
100
AcDbBlockBegin
  2
*D14
 70
     1
 10
0.0
 20
0.0
 30
0.0
  3
*D14
  1

  0
LINE
  5
25C
330
259
100
AcDbEntity
  8
0
  6
Continuous
 62
     0
370
    -2
100
AcDbLine
 10
104.3477700562417
 20
4.624096569362706
 30
0.0
 11
104.3477700562417
 21
12.68928937141394
 31
0.0
  0
LINE
  5
25D
330
259
100
AcDbEntity
  8
0
  6
Continuous
 62
     0
370
    -2
100
AcDbLine
 10
106.3477700562418
 20
4.624096569362706
 30
0.0
 11
106.3477700562418
 21
12.68928937141394
 31
0.0
  0
LINE
  5
25E
330
259
100
AcDbEntity
  8
0
  6
Continuous
 62
     0
370
    -2
100
AcDbLine
 10
102.1877700562417
 20
10.52928937141394
 30
0.0
 11
100.0277700562417
 21
10.52928937141394
 31
0.0
  0
LINE
  5
25F
330
259
100
AcDbEntity
  8
0
  6
Continuous
 62
     0
370
    -2
100
AcDbLine
 10
108.5077700562418
 20
10.52928937141394
 30
0.0
 11
110.6677700562418
 21
10.52928937141394
 31
0.0
  0
SOLID
  5
260
330
259
100
AcDbEntity
  8
0
  6
Continuous
 62
     0
100
AcDbTrace
 10
102.1877700562417
 20
10.88928937141393
 30
0.0
 11
102.1877700562417
 21
10.16928937141394
 31
0.0
 12
104.3477700562417
 22
10.52928937141394
 32
0.0
 13
104.3477700562417
 23
10.52928937141394
 33
0.0
  0
SOLID
  5
261
330
259
100
AcDbEntity
  8
0
  6
Continuous
 62
     0
100
AcDbTrace
 10
108.5077700562418
 20
10.88928937141393
 30
0.0
 11
108.5077700562418
 21
10.16928937141394
 31
0.0
 12
106.3477700562418
 22
10.52928937141394
 32
0.0
 13
106.3477700562418
 23
10.52928937141394
 33
0.0
  0
MTEXT
  5
262
330
259
100
AcDbEntity
  8
0
  6
Continuous
 62
     0
100
AcDbMText
 10
116.4277700562418
 20
10.52928937141394
 30
0.0
 40
2.16
 41
0.0
 71
     5
 72
     1
  1
\A1;2.0000
 73
     1
 44
1.0
1001
ACAD
1000
MTEXTBEGIN
1070
    73
1070
     1
1070
    44
1040
1.0
1070
    74
1070
     0
1000
MTEXTEND
  0
POINT
  5
263
330
259
100
AcDbEntity
  8
Defpoints
  6
Continuous
 62
     0
100
AcDbPoint
 10
104.3477700562417
 20
3.874096569362706
 30
0.0
  0
POINT
  5
264
330
259
100
AcDbEntity
  8
Defpoints
  6
Continuous
 62
     0
100
AcDbPoint
 10
106.3477700562418
 20
3.874096569362706
 30
0.0
  0
POINT
  5
265
330
259
100
AcDbEntity
  8
Defpoints
  6
Continuous
 62
     0
100
AcDbPoint
 10
106.3477700562418
 20
10.52928937141394
 30
0.0
  0
ENDBLK
  5
25B
330
259
100
AcDbEntity
  8
0
100
AcDbBlockEnd
  0
BLOCK
  5
268
330
267
100
AcDbEntity
  8
0
100
AcDbBlockBegin
  2
*D15
 70
     1
 10
0.0
 20
0.0
 30
0.0
  3
*D15
  1

  0
LINE
  5
26A
330
267
100
AcDbEntity
  8
0
  6
Continuous
 62
     0
370
    -2
100
AcDbLine
 10
70.34777005624036
 20
-10.37590343063727
 30
0.0
 11
70.34777005624036
 21
-17.47542335254289
 31
0.0
  0
LINE
  5
26B
330
267
100
AcDbEntity
  8
0
  6
Continuous
 62
     0
370
    -2
100
AcDbLine
 10
140.3477700562431
 20
-10.37590343063727
 30
0.0
 11
140.3477700562431
 21
-17.47542335254289
 31
0.0
  0
LINE
  5
26C
330
267
100
AcDbEntity
  8
0
  6
Continuous
 62
     0
370
    -2
100
AcDbLine
 10
72.50777005624036
 20
-15.31542335254289
 30
0.0
 11
98.68777005624178
 21
-15.31542335254289
 31
0.0
  0
LINE
  5
26D
330
267
100
AcDbEntity
  8
0
  6
Continuous
 62
     0
370
    -2
100
AcDbLine
 10
138.1877700562432
 20
-15.31542335254289
 30
0.0
 11
112.0077700562417
 21
-15.31542335254289
 31
0.0
  0
SOLID
  5
26E
330
267
100
AcDbEntity
  8
0
  6
Continuous
 62
     0
100
AcDbTrace
 10
72.50777005624036
 20
-14.95542335254289
 30
0.0
 11
72.50777005624036
 21
-15.67542335254289
 31
0.0
 12
70.34777005624036
 22
-15.31542335254289
 32
0.0
 13
70.34777005624036
 23
-15.31542335254289
 33
0.0
  0
SOLID
  5
26F
330
267
100
AcDbEntity
  8
0
  6
Continuous
 62
     0
100
AcDbTrace
 10
138.1877700562432
 20
-14.95542335254289
 30
0.0
 11
138.1877700562432
 21
-15.67542335254289
 31
0.0
 12
140.3477700562431
 22
-15.31542335254289
 32
0.0
 13
140.3477700562431
 23
-15.31542335254289
 33
0.0
  0
MTEXT
  5
270
330
267
100
AcDbEntity
  8
0
  6
Continuous
 62
     0
100
AcDbMText
 10
105.3477700562417
 20
-15.31542335254289
 30
0.0
 40
2.16
 41
0.0
 71
     5
 72
     1
  1
\A1;70.0000
 73
     1
 44
1.0
1001
ACAD
1000
MTEXTBEGIN
1070
    73
1070
     1
1070
    44
1040
1.0
1070
    74
1070
     0
1000
MTEXTEND
  0
POINT
  5
271
330
267
100
AcDbEntity
  8
Defpoints
  6
Continuous
 62
     0
100
AcDbPoint
 10
70.34777005624036
 20
-9.625903430637272
 30
0.0
  0
POINT
  5
272
330
267
100
AcDbEntity
  8
Defpoints
  6
Continuous
 62
     0
100
AcDbPoint
 10
140.3477700562431
 20
-9.625903430637272
 30
0.0
  0
POINT
  5
273
330
267
100
AcDbEntity
  8
Defpoints
  6
Continuous
 62
     0
100
AcDbPoint
 10
140.3477700562431
 20
-15.31542335254289
 30
0.0
  0
ENDBLK
  5
269
330
267
100
AcDbEntity
  8
0
100
AcDbBlockEnd
  0
BLOCK
  5
284
330
283
100
AcDbEntity
  8
0
100
AcDbBlockBegin
  2
*D16
 70
     1
 10
0.0
 20
0.0
 30
0.0
  3
*D16
  1

  0
LINE
  5
286
330
283
100
AcDbEntity
  8
0
  6
Continuous
 62
     0
370
    -2
100
AcDbLine
 10
141.0977700562431
 20
-7.609232131769239
 30
0.0
 11
150.0923787218308
 21
-7.609232131769243
 31
0.0
  0
LINE
  5
287
330
283
100
AcDbEntity
  8
0
  6
Continuous
 62
     0
370
    -2
100
AcDbLine
 10
141.097770056243
 20
-3.642574729504624
 30
0.0
 11
150.0923787218308
 21
-3.642574729504626
 31
0.0
  0
LINE
  5
288
330
283
100
AcDbEntity
  8
0
  6
Continuous
 62
     0
370
    -2
100
AcDbLine
 10
147.9323787218308
 20
-9.769232131769241
 30
0.0
 11
147.9323787218308
 21
-11.92923213176924
 31
0.0
  0
LINE
  5
289
330
283
100
AcDbEntity
  8
0
  6
Continuous
 62
     0
370
    -2
100
AcDbLine
 10
147.9323787218308
 20
-1.482574729504626
 30
0.0
 11
147.9323787218308
 21
0.6774252704953732
 31
0.0
  0
LINE
  5
28A
330
283
100
AcDbEntity
  8
0
  6
Continuous
 62
     0
370
    -2
100
AcDbLine
 10
147.9323787218308
 20
0.6774252704953732
 30
0.0
 11
150.0923787218308
 21
0.6774252704953728
 31
0.0
  0
SOLID
  5
28B
330
283
100
AcDbEntity
  8
0
  6
Continuous
 62
     0
100
AcDbTrace
 10
147.5723787218307
 20
-9.769232131769241
 30
0.0
 11
148.2923787218308
 21
-9.769232131769243
 31
0.0
 12
147.9323787218308
 22
-7.609232131769242
 32
0.0
 13
147.9323787218308
 23
-7.609232131769242
 33
0.0
  0
SOLID
  5
28C
330
283
100
AcDbEntity
  8
0
  6
Continuous
 62
     0
100
AcDbTrace
 10
147.5723787218307
 20
-1.482574729504626
 30
0.0
 11
148.2923787218308
 21
-1.482574729504626
 31
0.0
 12
147.9323787218308
 22
-3.642574729504626
 32
0.0
 13
147.9323787218308
 23
-3.642574729504626
 33
0.0
  0
MTEXT
  5
28D
330
283
100
AcDbEntity
  8
0
  6
Continuous
 62
     0
100
AcDbMText
 10
156.5723787218308
 20
0.6774252704953974
 30
0.0
 40
2.16
 41
0.0
 71
     5
 72
     1
  1
\A1;3.9667
 73
     1
 44
1.0
1001
ACAD
1000
MTEXTBEGIN
1070
    73
1070
     1
1070
    44
1040
1.0
1070
    74
1070
     0
1000
MTEXTEND
  0
POINT
  5
28E
330
283
100
AcDbEntity
  8
Defpoints
  6
Continuous
 62
     0
100
AcDbPoint
 10
140.3477700562431
 20
-7.609232131769239
 30
0.0
  0
POINT
  5
28F
330
283
100
AcDbEntity
  8
Defpoints
  6
Continuous
 62
     0
100
AcDbPoint
 10
140.3477700562429
 20
-3.642574729504624
 30
0.0
  0
POINT
  5
290
330
283
100
AcDbEntity
  8
Defpoints
  6
Continuous
 62
     0
100
AcDbPoint
 10
147.9323787218308
 20
-3.642574729504626
 30
0.0
  0
ENDBLK
  5
285
330
283
100
AcDbEntity
  8
0
100
AcDbBlockEnd
  0
BLOCK
  5
29B
330
29A
100
AcDbEntity
  8
0
100
AcDbBlockBegin
  2
*D17
 70
     1
 10
0.0
 20
0.0
 30
0.0
  3
*D17
  1

  0
LINE
  5
29D
330
29A
100
AcDbEntity
  8
0
  6
Continuous
 62
     0
370
    -2
100
AcDbLine
 10
69.59777005624037
 20
-9.625903430637272
 30
0.0
 11
48.53576836539466
 21
-9.625903430637265
 31
0.0
  0
LINE
  5
29E
330
29A
100
AcDbEntity
  8
0
  6
Continuous
 62
     0
370
    -2
100
AcDbLine
 10
83.09777005624036
 20
3.874096569362009
 30
0.0
 11
48.53576836539466
 21
3.87409656936202
 31
0.0
  0
LINE
  5
29F
330
29A
100
AcDbEntity
  8
0
  6
Continuous
 62
     0
370
    -2
100
AcDbLine
 10
50.69576836539465
 20
-7.465903430637266
 30
0.0
 11
50.69576836539465
 21
-5.035903430637623
 31
0.0
  0
LINE
  5
2A0
330
29A
100
AcDbEntity
  8
0
  6
Continuous
 62
     0
370
    -2
100
AcDbLine
 10
50.69576836539465
 20
1.714096569362019
 30
0.0
 11
50.69576836539465
 21
-0.715903430637623
 31
0.0
  0
SOLID
  5
2A1
330
29A
100
AcDbEntity
  8
0
  6
Continuous
 62
     0
100
AcDbTrace
 10
50.33576836539466
 20
-7.465903430637266
 30
0.0
 11
51.05576836539466
 21
-7.465903430637266
 31
0.0
 12
50.69576836539465
 22
-9.625903430637265
 32
0.0
 13
50.69576836539465
 23
-9.625903430637265
 33
0.0
  0
SOLID
  5
2A2
330
29A
100
AcDbEntity
  8
0
  6
Continuous
 62
     0
100
AcDbTrace
 10
50.33576836539466
 20
1.714096569362019
 30
0.0
 11
51.05576836539466
 21
1.714096569362019
 31
0.0
 12
50.69576836539465
 22
3.874096569362019
 32
0.0
 13
50.69576836539465
 23
3.874096569362019
 33
0.0
  0
MTEXT
  5
2A3
330
29A
100
AcDbEntity
  8
0
  6
Continuous
 62
     0
100
AcDbMText
 10
50.69576836539465
 20
-2.875903430637615
 30
0.0
 40
2.16
 41
0.0
 71
     5
 72
     1
  1
\A1;13.5000
 73
     1
 44
1.0
1001
ACAD
1000
MTEXTBEGIN
1070
    73
1070
     1
1070
    44
1040
1.0
1070
    74
1070
     0
1000
MTEXTEND
  0
POINT
  5
2A4
330
29A
100
AcDbEntity
  8
Defpoints
  6
Continuous
 62
     0
100
AcDbPoint
 10
70.34777005624036
 20
-9.625903430637272
 30
0.0
  0
POINT
  5
2A5
330
29A
100
AcDbEntity
  8
Defpoints
  6
Continuous
 62
     0
100
AcDbPoint
 10
83.84777005624036
 20
3.874096569362009
 30
0.0
  0
POINT
  5
2A6
330
29A
100
AcDbEntity
  8
Defpoints
  6
Continuous
 62
     0
100
AcDbPoint
 10
50.69576836539465
 20
3.874096569362019
 30
0.0
  0
ENDBLK
  5
29C
330
29A
100
AcDbEntity
  8
0
100
AcDbBlockEnd
  0
BLOCK
  5
2A9
330
2A8
100
AcDbEntity
  8
0
100
AcDbBlockBegin
  2
*D18
 70
     1
 10
0.0
 20
0.0
 30
0.0
  3
*D18
  1

  0
LINE
  5
2AB
330
2A8
100
AcDbEntity
  8
0
  6
Continuous
 62
     0
370
    -2
100
AcDbLine
 10
70.34777005624036
 20
-10.37590343063727
 30
0.0
 11
70.34777005624036
 21
-19.50815212251044
 31
0.0
  0
LINE
  5
2AC
330
2A8
100
AcDbEntity
  8
0
  6
Continuous
 62
     0
370
    -2
100
AcDbLine
 10
140.3477700562431
 20
-10.37590343063727
 30
0.0
 11
140.3477700562431
 21
-19.50815212251044
 31
0.0
  0
LINE
  5
2AD
330
2A8
100
AcDbEntity
  8
0
  6
Continuous
 62
     0
370
    -2
100
AcDbLine
 10
72.50777005624036
 20
-17.34815212251044
 30
0.0
 11
98.68777005624178
 21
-17.34815212251044
 31
0.0
  0
LINE
  5
2AE
330
2A8
100
AcDbEntity
  8
0
  6
Continuous
 62
     0
370
    -2
100
AcDbLine
 10
138.1877700562432
 20
-17.34815212251044
 30
0.0
 11
112.0077700562417
 21
-17.34815212251044
 31
0.0
  0
SOLID
  5
2AF
330
2A8
100
AcDbEntity
  8
0
  6
Continuous
 62
     0
100
AcDbTrace
 10
72.50777005624036
 20
-16.98815212251044
 30
0.0
 11
72.50777005624036
 21
-17.70815212251044
 31
0.0
 12
70.34777005624036
 22
-17.34815212251044
 32
0.0
 13
70.34777005624036
 23
-17.34815212251044
 33
0.0
  0
SOLID
  5
2B0
330
2A8
100
AcDbEntity
  8
0
  6
Continuous
 62
     0
100
AcDbTrace
 10
138.1877700562432
 20
-16.98815212251044
 30
0.0
 11
138.1877700562432
 21
-17.70815212251044
 31
0.0
 12
140.3477700562431
 22
-17.34815212251044
 32
0.0
 13
140.3477700562431
 23
-17.34815212251044
 33
0.0
  0
MTEXT
  5
2B1
330
2A8
100
AcDbEntity
  8
0
  6
Continuous
 62
     0
100
AcDbMText
 10
105.3477700562417
 20
-17.34815212251044
 30
0.0
 40
2.16
 41
0.0
 71
     5
 72
     1
  1
\A1;70.0000
 73
     1
 44
1.0
1001
ACAD
1000
MTEXTBEGIN
1070
    73
1070
     1
1070
    44
1040
1.0
1070
    74
1070
     0
1000
MTEXTEND
  0
POINT
  5
2B2
330
2A8
100
AcDbEntity
  8
Defpoints
  6
Continuous
 62
     0
100
AcDbPoint
 10
70.34777005624036
 20
-9.625903430637272
 30
0.0
  0
POINT
  5
2B3
330
2A8
100
AcDbEntity
  8
Defpoints
  6
Continuous
 62
     0
100
AcDbPoint
 10
140.3477700562431
 20
-9.625903430637272
 30
0.0
  0
POINT
  5
2B4
330
2A8
100
AcDbEntity
  8
Defpoints
  6
Continuous
 62
     0
100
AcDbPoint
 10
140.3477700562431
 20
-17.34815212251044
 30
0.0
  0
ENDBLK
  5
2AA
330
2A8
100
AcDbEntity
  8
0
100
AcDbBlockEnd
  0
BLOCK
  5
2B7
330
2B6
100
AcDbEntity
  8
0
100
AcDbBlockBegin
  2
*D19
 70
     1
 10
0.0
 20
0.0
 30
0.0
  3
*D19
  1

  0
LINE
  5
2B9
330
2B6
100
AcDbEntity
  8
0
  6
Continuous
 62
     0
370
    -2
100
AcDbLine
 10
104.3477700562417
 20
4.624096569362002
 30
0.0
 11
104.3477700562417
 21
13.05449600616842
 31
0.0
  0
LINE
  5
2BA
330
2B6
100
AcDbEntity
  8
0
  6
Continuous
 62
     0
370
    -2
100
AcDbLine
 10
106.3477700562418
 20
4.624096569361981
 30
0.0
 11
106.3477700562418
 21
13.05449600616842
 31
0.0
  0
LINE
  5
2BB
330
2B6
100
AcDbEntity
  8
0
  6
Continuous
 62
     0
370
    -2
100
AcDbLine
 10
102.1877700562417
 20
10.89449600616842
 30
0.0
 11
100.0277700562417
 21
10.89449600616842
 31
0.0
  0
LINE
  5
2BC
330
2B6
100
AcDbEntity
  8
0
  6
Continuous
 62
     0
370
    -2
100
AcDbLine
 10
108.5077700562418
 20
10.89449600616842
 30
0.0
 11
110.6677700562418
 21
10.89449600616842
 31
0.0
  0
SOLID
  5
2BD
330
2B6
100
AcDbEntity
  8
0
  6
Continuous
 62
     0
100
AcDbTrace
 10
102.1877700562417
 20
11.25449600616842
 30
0.0
 11
102.1877700562417
 21
10.53449600616842
 31
0.0
 12
104.3477700562417
 22
10.89449600616842
 32
0.0
 13
104.3477700562417
 23
10.89449600616842
 33
0.0
  0
SOLID
  5
2BE
330
2B6
100
AcDbEntity
  8
0
  6
Continuous
 62
     0
100
AcDbTrace
 10
108.5077700562418
 20
11.25449600616842
 30
0.0
 11
108.5077700562418
 21
10.53449600616842
 31
0.0
 12
106.3477700562418
 22
10.89449600616842
 32
0.0
 13
106.3477700562418
 23
10.89449600616842
 33
0.0
  0
MTEXT
  5
2BF
330
2B6
100
AcDbEntity
  8
0
  6
Continuous
 62
     0
100
AcDbMText
 10
116.4277700562418
 20
10.89449600616842
 30
0.0
 40
2.16
 41
0.0
 71
     5
 72
     1
  1
\A1;2.0000
 73
     1
 44
1.0
1001
ACAD
1000
MTEXTBEGIN
1070
    73
1070
     1
1070
    44
1040
1.0
1070
    74
1070
     0
1000
MTEXTEND
  0
POINT
  5
2C0
330
2B6
100
AcDbEntity
  8
Defpoints
  6
Continuous
 62
     0
100
AcDbPoint
 10
104.3477700562417
 20
3.874096569362002
 30
0.0
  0
POINT
  5
2C1
330
2B6
100
AcDbEntity
  8
Defpoints
  6
Continuous
 62
     0
100
AcDbPoint
 10
106.3477700562418
 20
3.874096569361981
 30
0.0
  0
POINT
  5
2C2
330
2B6
100
AcDbEntity
  8
Defpoints
  6
Continuous
 62
     0
100
AcDbPoint
 10
106.3477700562418
 20
10.89449600616842
 30
0.0
  0
ENDBLK
  5
2B8
330
2B6
100
AcDbEntity
  8
0
100
AcDbBlockEnd
  0
BLOCK
  5
2C5
330
2C4
100
AcDbEntity
  8
0
100
AcDbBlockBegin
  2
*D20
 70
     1
 10
0.0
 20
0.0
 30
0.0
  3
*D20
  1

  0
LINE
  5
2C7
330
2C4
100
AcDbEntity
  8
0
  6
Continuous
 62
     0
370
    -2
100
AcDbLine
 10
88.3477700562417
 20
3.874096569362002
 30
0.0
 11
58.92389092374
 21
3.874096569362011
 31
0.0
  0
LINE
  5
2C8
330
2C4
100
AcDbEntity
  8
0
  6
Continuous
 62
     0
370
    -2
100
AcDbLine
 10
88.3477700562417
 20
-1.675917327241347
 30
0.0
 11
58.92389092374
 21
-1.675917327241339
 31
0.0
  0
LINE
  5
2C9
330
2C4
100
AcDbEntity
  8
0
  6
Continuous
 62
     0
370
    -2
100
AcDbLine
 10
61.08389092374
 20
6.03409656936201
 30
0.0
 11
61.08389092374
 21
8.19409656936201
 31
0.0
  0
LINE
  5
2CA
330
2C4
100
AcDbEntity
  8
0
  6
Continuous
 62
     0
370
    -2
100
AcDbLine
 10
61.08389092374
 20
-3.83591732724134
 30
0.0
 11
61.08389092374
 21
-5.995917327241339
 31
0.0
  0
SOLID
  5
2CB
330
2C4
100
AcDbEntity
  8
0
  6
Continuous
 62
     0
100
AcDbTrace
 10
60.72389092374
 20
6.03409656936201
 30
0.0
 11
61.44389092374
 21
6.03409656936201
 31
0.0
 12
61.08389092374
 22
3.87409656936201
 32
0.0
 13
61.08389092374
 23
3.87409656936201
 33
0.0
  0
SOLID
  5
2CC
330
2C4
100
AcDbEntity
  8
0
  6
Continuous
 62
     0
100
AcDbTrace
 10
60.72389092374
 20
-3.835917327241339
 30
0.0
 11
61.44389092374
 21
-3.83591732724134
 31
0.0
 12
61.08389092374
 22
-1.675917327241339
 32
0.0
 13
61.08389092374
 23
-1.675917327241339
 33
0.0
  0
MTEXT
  5
2CD
330
2C4
100
AcDbEntity
  8
0
  6
Continuous
 62
     0
100
AcDbMText
 10
61.08389092374
 20
1.099089621060345
 30
0.0
 40
2.16
 41
0.0
 71
     5
 72
     1
  1
\A1;5.5500
 73
     1
 44
1.0
1001
ACAD
1000
MTEXTBEGIN
1070
    73
1070
     1
1070
    44
1040
1.0
1070
    74
1070
     0
1000
MTEXTEND
  0
POINT
  5
2CE
330
2C4
100
AcDbEntity
  8
Defpoints
  6
Continuous
 62
     0
100
AcDbPoint
 10
89.09777005624169
 20
3.874096569362002
 30
0.0
  0
POINT
  5
2CF
330
2C4
100
AcDbEntity
  8
Defpoints
  6
Continuous
 62
     0
100
AcDbPoint
 10
89.09777005624169
 20
-1.675917327241347
 30
0.0
  0
POINT
  5
2D0
330
2C4
100
AcDbEntity
  8
Defpoints
  6
Continuous
 62
     0
100
AcDbPoint
 10
61.08389092374
 20
-1.675917327241339
 30
0.0
  0
ENDBLK
  5
2C6
330
2C4
100
AcDbEntity
  8
0
100
AcDbBlockEnd
  0
BLOCK
  5
2D3
330
2D2
100
AcDbEntity
  8
0
100
AcDbBlockBegin
  2
*D21
 70
     1
 10
0.0
 20
0.0
 30
0.0
  3
*D21
  1

  0
LINE
  5
2D5
330
2D2
100
AcDbEntity
  8
0
  6
Continuous
 62
     0
370
    -2
100
AcDbLine
 10
141.0977700562431
 20
-7.625903430637272
 30
0.0
 11
146.6241194345006
 21
-7.625903430637274
 31
0.0
  0
LINE
  5
2D6
330
2D2
100
AcDbEntity
  8
0
  6
Continuous
 62
     0
370
    -2
100
AcDbLine
 10
141.0977700562431
 20
-3.625903430637273
 30
0.0
 11
146.6241194345006
 21
-3.625903430637274
 31
0.0
  0
LINE
  5
2D7
330
2D2
100
AcDbEntity
  8
0
  6
Continuous
 62
     0
370
    -2
100
AcDbLine
 10
144.4641194345006
 20
-9.785903430637272
 30
0.0
 11
144.4641194345006
 21
-11.94590343063727
 31
0.0
  0
LINE
  5
2D8
330
2D2
100
AcDbEntity
  8
0
  6
Continuous
 62
     0
370
    -2
100
AcDbLine
 10
144.4641194345006
 20
-1.465903430637273
 30
0.0
 11
144.4641194345006
 21
0.6940965693627263
 31
0.0
  0
LINE
  5
2D9
330
2D2
100
AcDbEntity
  8
0
  6
Continuous
 62
     0
370
    -2
100
AcDbLine
 10
144.4641194345006
 20
0.6940965693627263
 30
0.0
 11
146.6241194345006
 21
0.6940965693627259
 31
0.0
  0
SOLID
  5
2DA
330
2D2
100
AcDbEntity
  8
0
  6
Continuous
 62
     0
100
AcDbTrace
 10
144.1041194345006
 20
-9.785903430637272
 30
0.0
 11
144.8241194345006
 21
-9.785903430637272
 31
0.0
 12
144.4641194345006
 22
-7.625903430637273
 32
0.0
 13
144.4641194345006
 23
-7.625903430637273
 33
0.0
  0
SOLID
  5
2DB
330
2D2
100
AcDbEntity
  8
0
  6
Continuous
 62
     0
100
AcDbTrace
 10
144.1041194345006
 20
-1.465903430637273
 30
0.0
 11
144.8241194345006
 21
-1.465903430637274
 31
0.0
 12
144.4641194345006
 22
-3.625903430637273
 32
0.0
 13
144.4641194345006
 23
-3.625903430637273
 33
0.0
  0
MTEXT
  5
2DC
330
2D2
100
AcDbEntity
  8
0
  6
Continuous
 62
     0
100
AcDbMText
 10
152.3841194345006
 20
0.694096569362749
 30
0.0
 40
2.16
 41
0.0
 71
     5
 72
     1
  1
\A1;4.0000
 73
     1
 44
1.0
1001
ACAD
1000
MTEXTBEGIN
1070
    73
1070
     1
1070
    44
1040
1.0
1070
    74
1070
     0
1000
MTEXTEND
  0
POINT
  5
2DD
330
2D2
100
AcDbEntity
  8
Defpoints
  6
Continuous
 62
     0
100
AcDbPoint
 10
140.3477700562431
 20
-7.625903430637272
 30
0.0
  0
POINT
  5
2DE
330
2D2
100
AcDbEntity
  8
Defpoints
  6
Continuous
 62
     0
100
AcDbPoint
 10
140.3477700562431
 20
-3.625903430637272
 30
0.0
  0
POINT
  5
2DF
330
2D2
100
AcDbEntity
  8
Defpoints
  6
Continuous
 62
     0
100
AcDbPoint
 10
144.4641194345006
 20
-3.625903430637273
 30
0.0
  0
ENDBLK
  5
2D4
330
2D2
100
AcDbEntity
  8
0
100
AcDbBlockEnd
  0
BLOCK
  5
2E2
330
2E1
100
AcDbEntity
  8
0
100
AcDbBlockBegin
  2
*D22
 70
     1
 10
0.0
 20
0.0
 30
0.0
  3
*D22
  1

  0
LINE
  5
2E4
330
2E1
100
AcDbEntity
  8
0
  6
Continuous
 62
     0
370
    -2
100
AcDbLine
 10
141.0977700562431
 20
-1.625903430637272
 30
0.0
 11
163.521208744893
 21
-1.625903430637279
 31
0.0
  0
LINE
  5
2E5
330
2E1
100
AcDbEntity
  8
0
  6
Continuous
 62
     0
370
    -2
100
AcDbLine
 10
141.0977700562431
 20
-9.625903430637272
 30
0.0
 11
163.521208744893
 21
-9.625903430637277
 31
0.0
  0
LINE
  5
2E6
330
2E1
100
AcDbEntity
  8
0
  6
Continuous
 62
     0
370
    -2
100
AcDbLine
 10
161.361208744893
 20
-3.785903430637278
 30
0.0
 11
161.361208744893
 21
-7.465903430637277
 31
0.0
  0
LINE
  5
2E7
330
2E1
100
AcDbEntity
  8
0
  6
Continuous
 62
     0
370
    -2
100
AcDbLine
 10
161.361208744893
 20
-9.625903430637277
 30
0.0
 11
161.361208744893
 21
-11.78590343063728
 31
0.0
  0
LINE
  5
2E8
330
2E1
100
AcDbEntity
  8
0
  6
Continuous
 62
     0
370
    -2
100
AcDbLine
 10
161.361208744893
 20
-11.78590343063728
 30
0.0
 11
159.201208744893
 21
-11.78590343063728
 31
0.0
  0
SOLID
  5
2E9
330
2E1
100
AcDbEntity
  8
0
  6
Continuous
 62
     0
100
AcDbTrace
 10
161.001208744893
 20
-3.785903430637278
 30
0.0
 11
161.721208744893
 21
-3.785903430637278
 31
0.0
 12
161.361208744893
 22
-1.625903430637278
 32
0.0
 13
161.361208744893
 23
-1.625903430637278
 33
0.0
  0
SOLID
  5
2EA
330
2E1
100
AcDbEntity
  8
0
  6
Continuous
 62
     0
100
AcDbTrace
 10
161.001208744893
 20
-7.465903430637277
 30
0.0
 11
161.721208744893
 21
-7.465903430637277
 31
0.0
 12
161.361208744893
 22
-9.625903430637277
 32
0.0
 13
161.361208744893
 23
-9.625903430637277
 33
0.0
  0
MTEXT
  5
2EB
330
2E1
100
AcDbEntity
  8
0
  6
Continuous
 62
     0
100
AcDbMText
 10
153.441208744893
 20
-11.78590343063725
 30
0.0
 40
2.16
 41
0.0
 71
     5
 72
     1
  1
\A1;8.0000
 73
     1
 44
1.0
1001
ACAD
1000
MTEXTBEGIN
1070
    73
1070
     1
1070
    44
1040
1.0
1070
    74
1070
     0
1000
MTEXTEND
  0
POINT
  5
2EC
330
2E1
100
AcDbEntity
  8
Defpoints
  6
Continuous
 62
     0
100
AcDbPoint
 10
140.3477700562431
 20
-1.625903430637272
 30
0.0
  0
POINT
  5
2ED
330
2E1
100
AcDbEntity
  8
Defpoints
  6
Continuous
 62
     0
100
AcDbPoint
 10
140.3477700562431
 20
-9.625903430637272
 30
0.0
  0
POINT
  5
2EE
330
2E1
100
AcDbEntity
  8
Defpoints
  6
Continuous
 62
     0
100
AcDbPoint
 10
161.361208744893
 20
-9.625903430637277
 30
0.0
  0
ENDBLK
  5
2E3
330
2E1
100
AcDbEntity
  8
0
100
AcDbBlockEnd
  0
BLOCK
  5
2FA
330
2F9
100
AcDbEntity
  8
0
100
AcDbBlockBegin
  2
*D23
 70
     1
 10
0.0
 20
0.0
 30
0.0
  3
*D23
  1

  0
LINE
  5
2FC
330
2F9
100
AcDbEntity
  8
0
  6
Continuous
 62
     0
370
    -2
100
AcDbLine
 10
88.3477700562417
 20
3.824082672758585
 30
0.0
 11
58.83940095281488
 21
3.824082672758594
 31
0.0
  0
LINE
  5
2FD
330
2F9
100
AcDbEntity
  8
0
  6
Continuous
 62
     0
370
    -2
100
AcDbLine
 10
85.09777005624171
 20
-1.675917327241345
 30
0.0
 11
58.83940095281488
 21
-1.675917327241338
 31
0.0
  0
LINE
  5
2FE
330
2F9
100
AcDbEntity
  8
0
  6
Continuous
 62
     0
370
    -2
100
AcDbLine
 10
60.99940095281488
 20
5.984082672758593
 30
0.0
 11
60.99940095281488
 21
8.144082672758592
 31
0.0
  0
LINE
  5
2FF
330
2F9
100
AcDbEntity
  8
0
  6
Continuous
 62
     0
370
    -2
100
AcDbLine
 10
60.99940095281488
 20
-3.835917327241339
 30
0.0
 11
60.99940095281488
 21
-5.995917327241339
 31
0.0
  0
SOLID
  5
300
330
2F9
100
AcDbEntity
  8
0
  6
Continuous
 62
     0
100
AcDbTrace
 10
60.63940095281488
 20
5.984082672758593
 30
0.0
 11
61.35940095281488
 21
5.984082672758593
 31
0.0
 12
60.99940095281488
 22
3.824082672758594
 32
0.0
 13
60.99940095281488
 23
3.824082672758594
 33
0.0
  0
SOLID
  5
301
330
2F9
100
AcDbEntity
  8
0
  6
Continuous
 62
     0
100
AcDbTrace
 10
60.63940095281488
 20
-3.835917327241339
 30
0.0
 11
61.35940095281488
 21
-3.835917327241339
 31
0.0
 12
60.99940095281488
 22
-1.675917327241339
 32
0.0
 13
60.99940095281488
 23
-1.675917327241339
 33
0.0
  0
MTEXT
  5
302
330
2F9
100
AcDbEntity
  8
0
  6
Continuous
 62
     0
100
AcDbMText
 10
60.99940095281488
 20
1.074082672758637
 30
0.0
 40
2.16
 41
0.0
 71
     5
 72
     1
  1
\A1;5.5000
 73
     1
 44
1.0
1001
ACAD
1000
MTEXTBEGIN
1070
    73
1070
     1
1070
    44
1040
1.0
1070
    74
1070
     0
1000
MTEXTEND
  0
POINT
  5
303
330
2F9
100
AcDbEntity
  8
Defpoints
  6
Continuous
 62
     0
100
AcDbPoint
 10
89.09777005624169
 20
3.824082672758585
 30
0.0
  0
POINT
  5
304
330
2F9
100
AcDbEntity
  8
Defpoints
  6
Continuous
 62
     0
100
AcDbPoint
 10
85.8477700562417
 20
-1.675917327241346
 30
0.0
  0
POINT
  5
305
330
2F9
100
AcDbEntity
  8
Defpoints
  6
Continuous
 62
     0
100
AcDbPoint
 10
60.99940095281488
 20
-1.675917327241339
 30
0.0
  0
ENDBLK
  5
2FB
330
2F9
100
AcDbEntity
  8
0
100
AcDbBlockEnd
  0
BLOCK
  5
30C
330
30B
100
AcDbEntity
  8
0
100
AcDbBlockBegin
  2
*D24
 70
     1
 10
0.0
 20
0.0
 30
0.0
  3
*D24
  1

  0
LINE
  5
30E
330
30B
100
AcDbEntity
  8
0
  6
Continuous
 62
     0
370
    -2
100
AcDbLine
 10
104.3477700562417
 20
4.574082672758585
 30
0.0
 11
104.3477700562417
 21
16.85057252347642
 31
0.0
  0
LINE
  5
30F
330
30B
100
AcDbEntity
  8
0
  6
Continuous
 62
     0
370
    -2
100
AcDbLine
 10
106.3477700562418
 20
4.574082672758564
 30
0.0
 11
106.3477700562418
 21
16.85057252347642
 31
0.0
  0
LINE
  5
310
330
30B
100
AcDbEntity
  8
0
  6
Continuous
 62
     0
370
    -2
100
AcDbLine
 10
102.1877700562417
 20
14.69057252347642
 30
0.0
 11
100.0277700562417
 21
14.69057252347642
 31
0.0
  0
LINE
  5
311
330
30B
100
AcDbEntity
  8
0
  6
Continuous
 62
     0
370
    -2
100
AcDbLine
 10
108.5077700562418
 20
14.69057252347642
 30
0.0
 11
110.6677700562418
 21
14.69057252347642
 31
0.0
  0
SOLID
  5
312
330
30B
100
AcDbEntity
  8
0
  6
Continuous
 62
     0
100
AcDbTrace
 10
102.1877700562417
 20
15.05057252347642
 30
0.0
 11
102.1877700562417
 21
14.33057252347642
 31
0.0
 12
104.3477700562417
 22
14.69057252347642
 32
0.0
 13
104.3477700562417
 23
14.69057252347642
 33
0.0
  0
SOLID
  5
313
330
30B
100
AcDbEntity
  8
0
  6
Continuous
 62
     0
100
AcDbTrace
 10
108.5077700562418
 20
15.05057252347642
 30
0.0
 11
108.5077700562418
 21
14.33057252347642
 31
0.0
 12
106.3477700562418
 22
14.69057252347642
 32
0.0
 13
106.3477700562418
 23
14.69057252347642
 33
0.0
  0
MTEXT
  5
314
330
30B
100
AcDbEntity
  8
0
  6
Continuous
 62
     0
100
AcDbMText
 10
116.4277700562418
 20
14.69057252347642
 30
0.0
 40
2.16
 41
0.0
 71
     5
 72
     1
  1
\A1;2.0000
 73
     1
 44
1.0
1001
ACAD
1000
MTEXTBEGIN
1070
    73
1070
     1
1070
    44
1040
1.0
1070
    74
1070
     0
1000
MTEXTEND
  0
POINT
  5
315
330
30B
100
AcDbEntity
  8
Defpoints
  6
Continuous
 62
     0
100
AcDbPoint
 10
104.3477700562417
 20
3.824082672758585
 30
0.0
  0
POINT
  5
316
330
30B
100
AcDbEntity
  8
Defpoints
  6
Continuous
 62
     0
100
AcDbPoint
 10
106.3477700562418
 20
3.824082672758564
 30
0.0
  0
POINT
  5
317
330
30B
100
AcDbEntity
  8
Defpoints
  6
Continuous
 62
     0
100
AcDbPoint
 10
106.3477700562418
 20
14.69057252347642
 30
0.0
  0
ENDBLK
  5
30D
330
30B
100
AcDbEntity
  8
0
100
AcDbBlockEnd
  0
BLOCK
  5
328
330
327
100
AcDbEntity
  8
0
100
AcDbBlockBegin
  2
*D25
 70
     1
 10
0.0
 20
0.0
 30
0.0
  3
*D25
  1

  0
LINE
  5
32A
330
327
100
AcDbEntity
  8
0
  6
Continuous
 62
     0
370
    -2
100
AcDbLine
 10
69.59777005624037
 20
-7.625903430637272
 30
0.0
 11
56.21794966756962
 21
-7.625903430637269
 31
0.0
  0
LINE
  5
32B
330
327
100
AcDbEntity
  8
0
  6
Continuous
 62
     0
370
    -2
100
AcDbLine
 10
69.59777005624058
 20
-3.625903430637273
 30
0.0
 11
56.21794966756962
 21
-3.625903430637269
 31
0.0
  0
LINE
  5
32C
330
327
100
AcDbEntity
  8
0
  6
Continuous
 62
     0
370
    -2
100
AcDbLine
 10
58.37794966756963
 20
-9.785903430637269
 30
0.0
 11
58.37794966756963
 21
-11.94590343063727
 31
0.0
  0
LINE
  5
32D
330
327
100
AcDbEntity
  8
0
  6
Continuous
 62
     0
370
    -2
100
AcDbLine
 10
58.37794966756963
 20
-1.465903430637269
 30
0.0
 11
58.37794966756963
 21
0.6940965693627307
 31
0.0
  0
LINE
  5
32E
330
327
100
AcDbEntity
  8
0
  6
Continuous
 62
     0
370
    -2
100
AcDbLine
 10
58.37794966756963
 20
0.6940965693627307
 30
0.0
 11
60.53794966756962
 21
0.6940965693627304
 31
0.0
  0
SOLID
  5
32F
330
327
100
AcDbEntity
  8
0
  6
Continuous
 62
     0
100
AcDbTrace
 10
58.01794966756962
 20
-9.785903430637269
 30
0.0
 11
58.73794966756962
 21
-9.785903430637269
 31
0.0
 12
58.37794966756963
 22
-7.625903430637269
 32
0.0
 13
58.37794966756963
 23
-7.625903430637269
 33
0.0
  0
SOLID
  5
330
330
327
100
AcDbEntity
  8
0
  6
Continuous
 62
     0
100
AcDbTrace
 10
58.01794966756962
 20
-1.465903430637269
 30
0.0
 11
58.73794966756962
 21
-1.465903430637269
 31
0.0
 12
58.37794966756963
 22
-3.625903430637269
 32
0.0
 13
58.37794966756963
 23
-3.625903430637269
 33
0.0
  0
MTEXT
  5
331
330
327
100
AcDbEntity
  8
0
  6
Continuous
 62
     0
100
AcDbMText
 10
66.29794966756962
 20
0.6940965693627396
 30
0.0
 40
2.16
 41
0.0
 71
     5
 72
     1
  1
\A1;4.0000
 73
     1
 44
1.0
1001
ACAD
1000
MTEXTBEGIN
1070
    73
1070
     1
1070
    44
1040
1.0
1070
    74
1070
     0
1000
MTEXTEND
  0
POINT
  5
332
330
327
100
AcDbEntity
  8
Defpoints
  6
Continuous
 62
     0
100
AcDbPoint
 10
70.34777005624036
 20
-7.625903430637273
 30
0.0
  0
POINT
  5
333
330
327
100
AcDbEntity
  8
Defpoints
  6
Continuous
 62
     0
100
AcDbPoint
 10
70.34777005624057
 20
-3.625903430637273
 30
0.0
  0
POINT
  5
334
330
327
100
AcDbEntity
  8
Defpoints
  6
Continuous
 62
     0
100
AcDbPoint
 10
58.37794966756963
 20
-3.625903430637269
 30
0.0
  0
ENDBLK
  5
329
330
327
100
AcDbEntity
  8
0
100
AcDbBlockEnd
  0
BLOCK
  5
337
330
336
100
AcDbEntity
  8
0
100
AcDbBlockBegin
  2
*D26
 70
     1
 10
0.0
 20
0.0
 30
0.0
  3
*D26
  1

  0
LINE
  5
339
330
336
100
AcDbEntity
  8
0
  6
Continuous
 62
     0
370
    -2
100
AcDbLine
 10
69.59777005624037
 20
-9.625903430637272
 30
0.0
 11
36.54549335051977
 21
-9.625903430637263
 31
0.0
  0
LINE
  5
33A
330
336
100
AcDbEntity
  8
0
  6
Continuous
 62
     0
370
    -2
100
AcDbLine
 10
69.59777005624037
 20
-1.625903430637272
 30
0.0
 11
36.54549335051977
 21
-1.625903430637263
 31
0.0
  0
LINE
  5
33B
330
336
100
AcDbEntity
  8
0
  6
Continuous
 62
     0
370
    -2
100
AcDbLine
 10
38.70549335051976
 20
-7.465903430637263
 30
0.0
 11
38.70549335051976
 21
-3.785903430637263
 31
0.0
  0
LINE
  5
33C
330
336
100
AcDbEntity
  8
0
  6
Continuous
 62
     0
370
    -2
100
AcDbLine
 10
38.70549335051976
 20
-1.625903430637263
 30
0.0
 11
38.70549335051976
 21
0.5340965693627365
 31
0.0
  0
LINE
  5
33D
330
336
100
AcDbEntity
  8
0
  6
Continuous
 62
     0
370
    -2
100
AcDbLine
 10
38.70549335051976
 20
0.5340965693627365
 30
0.0
 11
40.86549335051976
 21
0.5340965693627361
 31
0.0
  0
SOLID
  5
33E
330
336
100
AcDbEntity
  8
0
  6
Continuous
 62
     0
100
AcDbTrace
 10
38.34549335051976
 20
-7.465903430637263
 30
0.0
 11
39.06549335051976
 21
-7.465903430637263
 31
0.0
 12
38.70549335051976
 22
-9.625903430637263
 32
0.0
 13
38.70549335051976
 23
-9.625903430637263
 33
0.0
  0
SOLID
  5
33F
330
336
100
AcDbEntity
  8
0
  6
Continuous
 62
     0
100
AcDbTrace
 10
38.34549335051976
 20
-3.785903430637263
 30
0.0
 11
39.06549335051976
 21
-3.785903430637263
 31
0.0
 12
38.70549335051976
 22
-1.625903430637263
 32
0.0
 13
38.70549335051976
 23
-1.625903430637263
 33
0.0
  0
MTEXT
  5
340
330
336
100
AcDbEntity
  8
0
  6
Continuous
 62
     0
100
AcDbMText
 10
46.62549335051976
 20
0.5340965693627427
 30
0.0
 40
2.16
 41
0.0
 71
     5
 72
     1
  1
\A1;8.0000
 73
     1
 44
1.0
1001
ACAD
1000
MTEXTBEGIN
1070
    73
1070
     1
1070
    44
1040
1.0
1070
    74
1070
     0
1000
MTEXTEND
  0
POINT
  5
341
330
336
100
AcDbEntity
  8
Defpoints
  6
Continuous
 62
     0
100
AcDbPoint
 10
70.34777005624036
 20
-9.625903430637272
 30
0.0
  0
POINT
  5
342
330
336
100
AcDbEntity
  8
Defpoints
  6
Continuous
 62
     0
100
AcDbPoint
 10
70.34777005624036
 20
-1.625903430637272
 30
0.0
  0
POINT
  5
343
330
336
100
AcDbEntity
  8
Defpoints
  6
Continuous
 62
     0
100
AcDbPoint
 10
38.70549335051976
 20
-1.625903430637263
 30
0.0
  0
ENDBLK
  5
338
330
336
100
AcDbEntity
  8
0
100
AcDbBlockEnd
  0
BLOCK
  5
346
330
345
100
AcDbEntity
  8
0
100
AcDbBlockBegin
  2
*D27
 70
     1
 10
0.0
 20
0.0
 30
0.0
  3
*D27
  1

  0
LINE
  5
348
330
345
100
AcDbEntity
  8
0
  6
Continuous
 62
     0
370
    -2
100
AcDbLine
 10
88.34777005624037
 20
3.874096569361995
 30
0.0
 11
81.68777005624036
 21
3.874096569361996
 31
0.0
  0
LINE
  5
349
330
345
100
AcDbEntity
  8
0
  6
Continuous
 62
     0
370
    -2
100
AcDbLine
 10
88.34777005624037
 20
-1.625903430637938
 30
0.0
 11
81.68777005624036
 21
-1.625903430637936
 31
0.0
  0
LINE
  5
34A
330
345
100
AcDbEntity
  8
0
  6
Continuous
 62
     0
370
    -2
100
AcDbLine
 10
83.84777005624036
 20
6.034096569361996
 30
0.0
 11
83.84777005624036
 21
8.194096569361997
 31
0.0
  0
LINE
  5
34B
330
345
100
AcDbEntity
  8
0
  6
Continuous
 62
     0
370
    -2
100
AcDbLine
 10
83.84777005624036
 20
-3.785903430637937
 30
0.0
 11
83.84777005624036
 21
-5.945903430637937
 31
0.0
  0
SOLID
  5
34C
330
345
100
AcDbEntity
  8
0
  6
Continuous
 62
     0
100
AcDbTrace
 10
83.48777005624036
 20
6.034096569361996
 30
0.0
 11
84.20777005624037
 21
6.034096569361996
 31
0.0
 12
83.84777005624036
 22
3.874096569361996
 32
0.0
 13
83.84777005624036
 23
3.874096569361996
 33
0.0
  0
SOLID
  5
34D
330
345
100
AcDbEntity
  8
0
  6
Continuous
 62
     0
100
AcDbTrace
 10
83.48777005624036
 20
-3.785903430637937
 30
0.0
 11
84.20777005624037
 21
-3.785903430637937
 31
0.0
 12
83.84777005624036
 22
-1.625903430637937
 32
0.0
 13
83.84777005624036
 23
-1.625903430637937
 33
0.0
  0
MTEXT
  5
34E
330
345
100
AcDbEntity
  8
0
  6
Continuous
 62
     0
100
AcDbMText
 10
83.84777005624036
 20
1.124096569362043
 30
0.0
 40
2.16
 41
0.0
 71
     5
 72
     1
  1
\A1;5.5000
 73
     1
 44
1.0
1001
ACAD
1000
MTEXTBEGIN
1070
    73
1070
     1
1070
    44
1040
1.0
1070
    74
1070
     0
1000
MTEXTEND
  0
POINT
  5
34F
330
345
100
AcDbEntity
  8
Defpoints
  6
Continuous
 62
     0
100
AcDbPoint
 10
89.09777005624036
 20
3.874096569361994
 30
0.0
  0
POINT
  5
350
330
345
100
AcDbEntity
  8
Defpoints
  6
Continuous
 62
     0
100
AcDbPoint
 10
89.09777005624036
 20
-1.625903430637938
 30
0.0
  0
POINT
  5
351
330
345
100
AcDbEntity
  8
Defpoints
  6
Continuous
 62
     0
100
AcDbPoint
 10
83.84777005624036
 20
-1.625903430637937
 30
0.0
  0
ENDBLK
  5
347
330
345
100
AcDbEntity
  8
0
100
AcDbBlockEnd
  0
BLOCK
  5
354
330
353
100
AcDbEntity
  8
0
100
AcDbBlockBegin
  2
*D28
 70
     1
 10
0.0
 20
0.0
 30
0.0
  3
*D28
  1

  0
LINE
  5
356
330
353
100
AcDbEntity
  8
0
  6
Continuous
 62
     0
370
    -2
100
AcDbLine
 10
113.8477700562418
 20
3.874096569361994
 30
0.0
 11
119.5078019736369
 21
3.874096569361992
 31
0.0
  0
LINE
  5
357
330
353
100
AcDbEntity
  8
0
  6
Continuous
 62
     0
370
    -2
100
AcDbLine
 10
113.8477700562418
 20
-1.625903430637944
 30
0.0
 11
119.5078019736369
 21
-1.625903430637946
 31
0.0
  0
LINE
  5
358
330
353
100
AcDbEntity
  8
0
  6
Continuous
 62
     0
370
    -2
100
AcDbLine
 10
117.347801973637
 20
6.034096569361993
 30
0.0
 11
117.347801973637
 21
8.194096569361994
 31
0.0
  0
LINE
  5
359
330
353
100
AcDbEntity
  8
0
  6
Continuous
 62
     0
370
    -2
100
AcDbLine
 10
117.347801973637
 20
-3.785903430637945
 30
0.0
 11
117.347801973637
 21
-5.945903430637945
 31
0.0
  0
SOLID
  5
35A
330
353
100
AcDbEntity
  8
0
  6
Continuous
 62
     0
100
AcDbTrace
 10
116.987801973637
 20
6.034096569361993
 30
0.0
 11
117.7078019736369
 21
6.034096569361993
 31
0.0
 12
117.347801973637
 22
3.874096569361993
 32
0.0
 13
117.347801973637
 23
3.874096569361993
 33
0.0
  0
SOLID
  5
35B
330
353
100
AcDbEntity
  8
0
  6
Continuous
 62
     0
100
AcDbTrace
 10
116.987801973637
 20
-3.785903430637945
 30
0.0
 11
117.7078019736369
 21
-3.785903430637945
 31
0.0
 12
117.347801973637
 22
-1.625903430637945
 32
0.0
 13
117.347801973637
 23
-1.625903430637945
 33
0.0
  0
MTEXT
  5
35C
330
353
100
AcDbEntity
  8
0
  6
Continuous
 62
     0
100
AcDbMText
 10
117.347801973637
 20
1.124096569362043
 30
0.0
 40
2.16
 41
0.0
 71
     5
 72
     1
  1
\A1;5.5000
 73
     1
 44
1.0
1001
ACAD
1000
MTEXTBEGIN
1070
    73
1070
     1
1070
    44
1040
1.0
1070
    74
1070
     0
1000
MTEXTEND
  0
POINT
  5
35D
330
353
100
AcDbEntity
  8
Defpoints
  6
Continuous
 62
     0
100
AcDbPoint
 10
113.0977700562418
 20
3.874096569361994
 30
0.0
  0
POINT
  5
35E
330
353
100
AcDbEntity
  8
Defpoints
  6
Continuous
 62
     0
100
AcDbPoint
 10
113.0977700562418
 20
-1.625903430637944
 30
0.0
  0
POINT
  5
35F
330
353
100
AcDbEntity
  8
Defpoints
  6
Continuous
 62
     0
100
AcDbPoint
 10
117.347801973637
 20
-1.625903430637945
 30
0.0
  0
ENDBLK
  5
355
330
353
100
AcDbEntity
  8
0
100
AcDbBlockEnd
  0
BLOCK
  5
36E
330
36D
100
AcDbEntity
  8
0
100
AcDbBlockBegin
  2
*D29
 70
     1
 10
0.0
 20
0.0
 30
0.0
  3
*D29
  1

  0
LINE
  5
370
330
36D
100
AcDbEntity
  8
0
  6
Continuous
 62
     0
370
    -2
100
AcDbLine
 10
124.0977700562416
 20
-3.609232131768316
 30
0.0
 11
120.115681515565
 21
-3.609232131768314
 31
0.0
  0
LINE
  5
371
330
36D
100
AcDbEntity
  8
0
  6
Continuous
 62
     0
370
    -2
100
AcDbLine
 10
124.0977700562417
 20
-7.609232131768315
 30
0.0
 11
120.115681515565
 21
-7.609232131768314
 31
0.0
  0
LINE
  5
372
330
36D
100
AcDbEntity
  8
0
  6
Continuous
 62
     0
370
    -2
100
AcDbLine
 10
122.275681515565
 20
-1.449232131768315
 30
0.0
 11
122.275681515565
 21
0.7107678682316844
 31
0.0
  0
LINE
  5
373
330
36D
100
AcDbEntity
  8
0
  6
Continuous
 62
     0
370
    -2
100
AcDbLine
 10
122.275681515565
 20
-9.769232131768314
 30
0.0
 11
122.275681515565
 21
-11.92923213176831
 31
0.0
  0
LINE
  5
374
330
36D
100
AcDbEntity
  8
0
  6
Continuous
 62
     0
370
    -2
100
AcDbLine
 10
122.275681515565
 20
-11.92923213176831
 30
0.0
 11
120.115681515565
 21
-11.92923213176831
 31
0.0
  0
SOLID
  5
375
330
36D
100
AcDbEntity
  8
0
  6
Continuous
 62
     0
100
AcDbTrace
 10
121.915681515565
 20
-1.449232131768315
 30
0.0
 11
122.635681515565
 21
-1.449232131768315
 31
0.0
 12
122.275681515565
 22
-3.609232131768315
 32
0.0
 13
122.275681515565
 23
-3.609232131768315
 33
0.0
  0
SOLID
  5
376
330
36D
100
AcDbEntity
  8
0
  6
Continuous
 62
     0
100
AcDbTrace
 10
121.915681515565
 20
-9.769232131768314
 30
0.0
 11
122.635681515565
 21
-9.769232131768314
 31
0.0
 12
122.275681515565
 22
-7.609232131768315
 32
0.0
 13
122.275681515565
 23
-7.609232131768315
 33
0.0
  0
MTEXT
  5
377
330
36D
100
AcDbEntity
  8
0
  6
Continuous
 62
     0
100
AcDbMText
 10
114.355681515565
 20
-11.92923213176829
 30
0.0
 40
2.16
 41
0.0
 71
     5
 72
     1
  1
\A1;4.0000
 73
     1
 44
1.0
1001
ACAD
1000
MTEXTBEGIN
1070
    73
1070
     1
1070
    44
1040
1.0
1070
    74
1070
     0
1000
MTEXTEND
  0
POINT
  5
378
330
36D
100
AcDbEntity
  8
Defpoints
  6
Continuous
 62
     0
100
AcDbPoint
 10
124.8477700562416
 20
-3.609232131768316
 30
0.0
  0
POINT
  5
379
330
36D
100
AcDbEntity
  8
Defpoints
  6
Continuous
 62
     0
100
AcDbPoint
 10
124.8477700562417
 20
-7.609232131768315
 30
0.0
  0
POINT
  5
37A
330
36D
100
AcDbEntity
  8
Defpoints
  6
Continuous
 62
     0
100
AcDbPoint
 10
122.275681515565
 20
-7.609232131768315
 30
0.0
  0
ENDBLK
  5
36F
330
36D
100
AcDbEntity
  8
0
100
AcDbBlockEnd
  0
BLOCK
  5
38C
330
38B
100
AcDbEntity
  8
0
100
AcDbBlockBegin
  2
*D30
 70
     1
 10
0.0
 20
0.0
 30
0.0
  3
*D30
  1

  0
LINE
  5
38E
330
38B
100
AcDbEntity
  8
0
  6
Continuous
 62
     0
370
    -2
100
AcDbLine
 10
70.34777005624036
 20
-10.37590343063727
 30
0.0
 11
70.34777005624036
 21
-21.33544741583703
 31
0.0
  0
LINE
  5
38F
330
38B
100
AcDbEntity
  8
0
  6
Continuous
 62
     0
370
    -2
100
AcDbLine
 10
140.3477700562431
 20
-10.37590343063727
 30
0.0
 11
140.3477700562431
 21
-21.33544741583703
 31
0.0
  0
LINE
  5
390
330
38B
100
AcDbEntity
  8
0
  6
Continuous
 62
     0
370
    -2
100
AcDbLine
 10
72.50777005624036
 20
-19.17544741583703
 30
0.0
 11
98.68777005624178
 21
-19.17544741583703
 31
0.0
  0
LINE
  5
391
330
38B
100
AcDbEntity
  8
0
  6
Continuous
 62
     0
370
    -2
100
AcDbLine
 10
138.1877700562432
 20
-19.17544741583703
 30
0.0
 11
112.0077700562417
 21
-19.17544741583703
 31
0.0
  0
SOLID
  5
392
330
38B
100
AcDbEntity
  8
0
  6
Continuous
 62
     0
100
AcDbTrace
 10
72.50777005624036
 20
-18.81544741583702
 30
0.0
 11
72.50777005624036
 21
-19.53544741583703
 31
0.0
 12
70.34777005624036
 22
-19.17544741583703
 32
0.0
 13
70.34777005624036
 23
-19.17544741583703
 33
0.0
  0
SOLID
  5
393
330
38B
100
AcDbEntity
  8
0
  6
Continuous
 62
     0
100
AcDbTrace
 10
138.1877700562432
 20
-18.81544741583702
 30
0.0
 11
138.1877700562432
 21
-19.53544741583703
 31
0.0
 12
140.3477700562431
 22
-19.17544741583703
 32
0.0
 13
140.3477700562431
 23
-19.17544741583703
 33
0.0
  0
MTEXT
  5
394
330
38B
100
AcDbEntity
  8
0
  6
Continuous
 62
     0
100
AcDbMText
 10
105.3477700562417
 20
-19.17544741583703
 30
0.0
 40
2.16
 41
0.0
 71
     5
 72
     1
  1
\A1;70.0000
 73
     1
 44
1.0
1001
ACAD
1000
MTEXTBEGIN
1070
    73
1070
     1
1070
    44
1040
1.0
1070
    74
1070
     0
1000
MTEXTEND
  0
POINT
  5
395
330
38B
100
AcDbEntity
  8
Defpoints
  6
Continuous
 62
     0
100
AcDbPoint
 10
70.34777005624036
 20
-9.625903430637272
 30
0.0
  0
POINT
  5
396
330
38B
100
AcDbEntity
  8
Defpoints
  6
Continuous
 62
     0
100
AcDbPoint
 10
140.3477700562431
 20
-9.625903430637272
 30
0.0
  0
POINT
  5
397
330
38B
100
AcDbEntity
  8
Defpoints
  6
Continuous
 62
     0
100
AcDbPoint
 10
140.3477700562431
 20
-19.17544741583703
 30
0.0
  0
ENDBLK
  5
38D
330
38B
100
AcDbEntity
  8
0
100
AcDbBlockEnd
  0
BLOCK
  5
39A
330
399
100
AcDbEntity
  8
0
100
AcDbBlockBegin
  2
*D31
 70
     1
 10
0.0
 20
0.0
 30
0.0
  3
*D31
  1

  0
LINE
  5
39C
330
399
100
AcDbEntity
  8
0
  6
Continuous
 62
     0
370
    -2
100
AcDbLine
 10
89.09777005624036
 20
4.624096569361994
 30
0.0
 11
89.09777005624036
 21
12.03768079766863
 31
0.0
  0
LINE
  5
39D
330
399
100
AcDbEntity
  8
0
  6
Continuous
 62
     0
370
    -2
100
AcDbLine
 10
97.59777005624169
 20
4.624096569361994
 30
0.0
 11
97.59777005624169
 21
12.03768079766863
 31
0.0
  0
LINE
  5
39E
330
399
100
AcDbEntity
  8
0
  6
Continuous
 62
     0
370
    -2
100
AcDbLine
 10
91.25777005624035
 20
9.877680797668631
 30
0.0
 11
95.43777005624169
 21
9.877680797668631
 31
0.0
  0
LINE
  5
39F
330
399
100
AcDbEntity
  8
0
  6
Continuous
 62
     0
370
    -2
100
AcDbLine
 10
97.59777005624169
 20
9.877680797668631
 30
0.0
 11
99.75777005624168
 21
9.877680797668631
 31
0.0
  0
SOLID
  5
3A0
330
399
100
AcDbEntity
  8
0
  6
Continuous
 62
     0
100
AcDbTrace
 10
91.25777005624035
 20
10.23768079766863
 30
0.0
 11
91.25777005624035
 21
9.517680797668631
 31
0.0
 12
89.09777005624036
 22
9.877680797668631
 32
0.0
 13
89.09777005624036
 23
9.877680797668631
 33
0.0
  0
SOLID
  5
3A1
330
399
100
AcDbEntity
  8
0
  6
Continuous
 62
     0
100
AcDbTrace
 10
95.43777005624169
 20
10.23768079766863
 30
0.0
 11
95.43777005624169
 21
9.517680797668631
 31
0.0
 12
97.59777005624169
 22
9.877680797668631
 32
0.0
 13
97.59777005624169
 23
9.877680797668631
 33
0.0
  0
MTEXT
  5
3A2
330
399
100
AcDbEntity
  8
0
  6
Continuous
 62
     0
100
AcDbMText
 10
105.6977700562417
 20
9.877680797668631
 30
0.0
 40
2.16
 41
0.0
 71
     5
 72
     1
  1
\A1;8.5000
 73
     1
 44
1.0
1001
ACAD
1000
MTEXTBEGIN
1070
    73
1070
     1
1070
    44
1040
1.0
1070
    74
1070
     0
1000
MTEXTEND
  0
POINT
  5
3A3
330
399
100
AcDbEntity
  8
Defpoints
  6
Continuous
 62
     0
100
AcDbPoint
 10
89.09777005624036
 20
3.874096569361994
 30
0.0
  0
POINT
  5
3A4
330
399
100
AcDbEntity
  8
Defpoints
  6
Continuous
 62
     0
100
AcDbPoint
 10
97.59777005624169
 20
3.874096569361994
 30
0.0
  0
POINT
  5
3A5
330
399
100
AcDbEntity
  8
Defpoints
  6
Continuous
 62
     0
100
AcDbPoint
 10
97.59777005624169
 20
9.877680797668631
 30
0.0
  0
ENDBLK
  5
39B
330
399
100
AcDbEntity
  8
0
100
AcDbBlockEnd
  0
BLOCK
  5
3A8
330
3A7
100
AcDbEntity
  8
0
100
AcDbBlockBegin
  2
*D32
 70
     1
 10
0.0
 20
0.0
 30
0.0
  3
*D32
  1

  0
LINE
  5
3AA
330
3A7
100
AcDbEntity
  8
0
  6
Continuous
 62
     0
370
    -2
100
AcDbLine
 10
104.3477700562417
 20
4.624096569361994
 30
0.0
 11
104.3477700562417
 21
20.75447270603141
 31
0.0
  0
LINE
  5
3AB
330
3A7
100
AcDbEntity
  8
0
  6
Continuous
 62
     0
370
    -2
100
AcDbLine
 10
106.3477700562418
 20
4.624096569361994
 30
0.0
 11
106.3477700562418
 21
20.75447270603141
 31
0.0
  0
LINE
  5
3AC
330
3A7
100
AcDbEntity
  8
0
  6
Continuous
 62
     0
370
    -2
100
AcDbLine
 10
102.1877700562417
 20
18.59447270603141
 30
0.0
 11
100.0277700562417
 21
18.59447270603141
 31
0.0
  0
LINE
  5
3AD
330
3A7
100
AcDbEntity
  8
0
  6
Continuous
 62
     0
370
    -2
100
AcDbLine
 10
108.5077700562418
 20
18.59447270603141
 30
0.0
 11
110.6677700562418
 21
18.59447270603141
 31
0.0
  0
SOLID
  5
3AE
330
3A7
100
AcDbEntity
  8
0
  6
Continuous
 62
     0
100
AcDbTrace
 10
102.1877700562417
 20
18.95447270603141
 30
0.0
 11
102.1877700562417
 21
18.23447270603141
 31
0.0
 12
104.3477700562417
 22
18.59447270603141
 32
0.0
 13
104.3477700562417
 23
18.59447270603141
 33
0.0
  0
SOLID
  5
3AF
330
3A7
100
AcDbEntity
  8
0
  6
Continuous
 62
     0
100
AcDbTrace
 10
108.5077700562418
 20
18.95447270603141
 30
0.0
 11
108.5077700562418
 21
18.23447270603141
 31
0.0
 12
106.3477700562418
 22
18.59447270603141
 32
0.0
 13
106.3477700562418
 23
18.59447270603141
 33
0.0
  0
MTEXT
  5
3B0
330
3A7
100
AcDbEntity
  8
0
  6
Continuous
 62
     0
100
AcDbMText
 10
116.4277700562418
 20
18.59447270603141
 30
0.0
 40
2.16
 41
0.0
 71
     5
 72
     1
  1
\A1;2.0000
 73
     1
 44
1.0
1001
ACAD
1000
MTEXTBEGIN
1070
    73
1070
     1
1070
    44
1040
1.0
1070
    74
1070
     0
1000
MTEXTEND
  0
POINT
  5
3B1
330
3A7
100
AcDbEntity
  8
Defpoints
  6
Continuous
 62
     0
100
AcDbPoint
 10
104.3477700562417
 20
3.874096569361994
 30
0.0
  0
POINT
  5
3B2
330
3A7
100
AcDbEntity
  8
Defpoints
  6
Continuous
 62
     0
100
AcDbPoint
 10
106.3477700562418
 20
3.874096569361994
 30
0.0
  0
POINT
  5
3B3
330
3A7
100
AcDbEntity
  8
Defpoints
  6
Continuous
 62
     0
100
AcDbPoint
 10
106.3477700562418
 20
18.59447270603141
 30
0.0
  0
ENDBLK
  5
3A9
330
3A7
100
AcDbEntity
  8
0
100
AcDbBlockEnd
  0
BLOCK
  5
3B6
330
3B5
100
AcDbEntity
  8
0
100
AcDbBlockBegin
  2
*D33
 70
     1
 10
0.0
 20
0.0
 30
0.0
  3
*D33
  1

  0
LINE
  5
43D
330
3B5
100
AcDbEntity
  8
0
  6
Continuous
 62
     0
370
    -2
100
AcDbLine
 10
113.0977700562418
 20
4.624096569361994
 30
0.0
 11
113.0977700562418
 21
14.55818244862914
 31
0.0
  0
LINE
  5
43E
330
3B5
100
AcDbEntity
  8
0
  6
Continuous
 62
     0
370
    -2
100
AcDbLine
 10
121.597368880986
 20
4.624096569362705
 30
0.0
 11
121.597368880986
 21
14.55818244862914
 31
0.0
  0
LINE
  5
43F
330
3B5
100
AcDbEntity
  8
0
  6
Continuous
 62
     0
370
    -2
100
AcDbLine
 10
115.2577700562418
 20
12.39818244862914
 30
0.0
 11
119.437368880986
 21
12.39818244862914
 31
0.0
  0
LINE
  5
440
330
3B5
100
AcDbEntity
  8
0
  6
Continuous
 62
     0
370
    -2
100
AcDbLine
 10
121.597368880986
 20
12.39818244862914
 30
0.0
 11
123.757368880986
 21
12.39818244862914
 31
0.0
  0
SOLID
  5
441
330
3B5
100
AcDbEntity
  8
0
  6
Continuous
 62
     0
100
AcDbTrace
 10
115.2577700562418
 20
12.75818244862914
 30
0.0
 11
115.2577700562418
 21
12.03818244862914
 31
0.0
 12
113.0977700562418
 22
12.39818244862914
 32
0.0
 13
113.0977700562418
 23
12.39818244862914
 33
0.0
  0
SOLID
  5
442
330
3B5
100
AcDbEntity
  8
0
  6
Continuous
 62
     0
100
AcDbTrace
 10
119.437368880986
 20
12.75818244862914
 30
0.0
 11
119.437368880986
 21
12.03818244862914
 31
0.0
 12
121.597368880986
 22
12.39818244862914
 32
0.0
 13
121.597368880986
 23
12.39818244862914
 33
0.0
  0
MTEXT
  5
443
330
3B5
100
AcDbEntity
  8
0
  6
Continuous
 62
     0
100
AcDbMText
 10
130.237368880986
 20
12.39818244862914
 30
0.0
 40
2.16
 41
0.0
 71
     5
 72
     1
  1
\A1;8.4996
 73
     1
 44
1.0
1001
ACAD
1000
MTEXTBEGIN
1070
    73
1070
     1
1070
    44
1040
1.0
1070
    74
1070
     0
1000
MTEXTEND
  0
POINT
  5
444
330
3B5
100
AcDbEntity
  8
Defpoints
  6
Continuous
 62
     0
100
AcDbPoint
 10
113.0977700562418
 20
3.874096569361994
 30
0.0
  0
POINT
  5
445
330
3B5
100
AcDbEntity
  8
Defpoints
  6
Continuous
 62
     0
100
AcDbPoint
 10
121.597368880986
 20
3.874096569362705
 30
0.0
  0
POINT
  5
446
330
3B5
100
AcDbEntity
  8
Defpoints
  6
Continuous
 62
     0
100
AcDbPoint
 10
121.597368880986
 20
12.39818244862914
 30
0.0
  0
ENDBLK
  5
3B7
330
3B5
100
AcDbEntity
  8
0
100
AcDbBlockEnd
  0
BLOCK
  5
3C4
330
3C3
100
AcDbEntity
  8
0
100
AcDbBlockBegin
  2
*D34
 70
     1
 10
0.0
 20
0.0
 30
0.0
  3
*D34
  1

  0
LINE
  5
3C6
330
3C3
100
AcDbEntity
  8
0
  6
Continuous
 62
     0
370
    -2
100
AcDbLine
 10
126.8477700562431
 20
-4.375903430637983
 30
0.0
 11
126.8477700562431
 21
-9.329289718919685
 31
0.0
  0
LINE
  5
3C7
330
3C3
100
AcDbEntity
  8
0
  6
Continuous
 62
     0
370
    -2
100
AcDbLine
 10
140.3477700562431
 20
-4.375903430637983
 30
0.0
 11
140.3477700562431
 21
-9.329289718919685
 31
0.0
  0
LINE
  5
3C8
330
3C3
100
AcDbEntity
  8
0
  6
Continuous
 62
     0
370
    -2
100
AcDbLine
 10
124.6877700562432
 20
-7.169289718919685
 30
0.0
 11
122.5277700562432
 21
-7.169289718919685
 31
0.0
  0
LINE
  5
3C9
330
3C3
100
AcDbEntity
  8
0
  6
Continuous
 62
     0
370
    -2
100
AcDbLine
 10
142.5077700562431
 20
-7.169289718919685
 30
0.0
 11
144.6677700562432
 21
-7.169289718919685
 31
0.0
  0
SOLID
  5
3CA
330
3C3
100
AcDbEntity
  8
0
  6
Continuous
 62
     0
100
AcDbTrace
 10
124.6877700562432
 20
-6.809289718919685
 30
0.0
 11
124.6877700562432
 21
-7.529289718919685
 31
0.0
 12
126.8477700562431
 22
-7.169289718919685
 32
0.0
 13
126.8477700562431
 23
-7.169289718919685
 33
0.0
  0
SOLID
  5
3CB
330
3C3
100
AcDbEntity
  8
0
  6
Continuous
 62
     0
100
AcDbTrace
 10
142.5077700562431
 20
-6.809289718919685
 30
0.0
 11
142.5077700562431
 21
-7.529289718919685
 31
0.0
 12
140.3477700562431
 22
-7.169289718919685
 32
0.0
 13
140.3477700562431
 23
-7.169289718919685
 33
0.0
  0
MTEXT
  5
3CC
330
3C3
100
AcDbEntity
  8
0
  6
Continuous
 62
     0
100
AcDbMText
 10
133.5977700562432
 20
-7.169289718919685
 30
0.0
 40
2.16
 41
0.0
 71
     5
 72
     1
  1
\A1;13.5000
 73
     1
 44
1.0
1001
ACAD
1000
MTEXTBEGIN
1070
    73
1070
     1
1070
    44
1040
1.0
1070
    74
1070
     0
1000
MTEXTEND
  0
POINT
  5
3CD
330
3C3
100
AcDbEntity
  8
Defpoints
  6
Continuous
 62
     0
100
AcDbPoint
 10
126.8477700562431
 20
-3.625903430637983
 30
0.0
  0
POINT
  5
3CE
330
3C3
100
AcDbEntity
  8
Defpoints
  6
Continuous
 62
     0
100
AcDbPoint
 10
140.3477700562431
 20
-3.625903430637983
 30
0.0
  0
POINT
  5
3CF
330
3C3
100
AcDbEntity
  8
Defpoints
  6
Continuous
 62
     0
100
AcDbPoint
 10
140.3477700562431
 20
-7.169289718919685
 30
0.0
  0
ENDBLK
  5
3C5
330
3C3
100
AcDbEntity
  8
0
100
AcDbBlockEnd
  0
BLOCK
  5
3D2
330
3D1
100
AcDbEntity
  8
0
100
AcDbBlockBegin
  2
*D35
 70
     1
 10
0.0
 20
0.0
 30
0.0
  3
*D35
  1

  0
LINE
  5
3EA
330
3D1
100
AcDbEntity
  8
0
  6
Continuous
 62
     0
370
    -2
100
AcDbLine
 10
126.8474965505652
 20
-0.8759034306379831
 30
0.0
 11
126.8474965505652
 21
2.952288503558325
 31
0.0
  0
LINE
  5
3EB
330
3D1
100
AcDbEntity
  8
0
  6
Continuous
 62
     0
370
    -2
100
AcDbLine
 10
140.3473688809873
 20
-0.875903430636562
 30
0.0
 11
140.3473688809873
 21
2.952288503558325
 31
0.0
  0
LINE
  5
3EC
330
3D1
100
AcDbEntity
  8
0
  6
Continuous
 62
     0
370
    -2
100
AcDbLine
 10
129.0074965505652
 20
0.792288503558325
 30
0.0
 11
138.1873688809873
 21
0.792288503558325
 31
0.0
  0
LINE
  5
3ED
330
3D1
100
AcDbEntity
  8
0
  6
Continuous
 62
     0
370
    -2
100
AcDbLine
 10
140.3473688809873
 20
0.792288503558325
 30
0.0
 11
142.5073688809874
 21
0.792288503558325
 31
0.0
  0
SOLID
  5
3EE
330
3D1
100
AcDbEntity
  8
0
  6
Continuous
 62
     0
100
AcDbTrace
 10
129.0074965505652
 20
1.152288503558325
 30
0.0
 11
129.0074965505652
 21
0.4322885035583249
 31
0.0
 12
126.8474965505652
 22
0.792288503558325
 32
0.0
 13
126.8474965505652
 23
0.792288503558325
 33
0.0
  0
SOLID
  5
3EF
330
3D1
100
AcDbEntity
  8
0
  6
Continuous
 62
     0
100
AcDbTrace
 10
138.1873688809873
 20
1.152288503558325
 30
0.0
 11
138.1873688809873
 21
0.4322885035583249
 31
0.0
 12
140.3473688809873
 22
0.792288503558325
 32
0.0
 13
140.3473688809873
 23
0.792288503558325
 33
0.0
  0
MTEXT
  5
3F0
330
3D1
100
AcDbEntity
  8
0
  6
Continuous
 62
     0
100
AcDbMText
 10
149.7073688809873
 20
0.792288503558325
 30
0.0
 40
2.16
 41
0.0
 71
     5
 72
     1
  1
\A1;13.4999
 73
     1
 44
1.0
1001
ACAD
1000
MTEXTBEGIN
1070
    73
1070
     1
1070
    44
1040
1.0
1070
    74
1070
     0
1000
MTEXTEND
  0
POINT
  5
3F1
330
3D1
100
AcDbEntity
  8
Defpoints
  6
Continuous
 62
     0
100
AcDbPoint
 10
126.8474965505652
 20
-1.625903430637983
 30
0.0
  0
POINT
  5
3F2
330
3D1
100
AcDbEntity
  8
Defpoints
  6
Continuous
 62
     0
100
AcDbPoint
 10
140.3473688809873
 20
-1.625903430636562
 30
0.0
  0
POINT
  5
3F3
330
3D1
100
AcDbEntity
  8
Defpoints
  6
Continuous
 62
     0
100
AcDbPoint
 10
140.3473688809873
 20
0.792288503558325
 30
0.0
  0
ENDBLK
  5
3D3
330
3D1
100
AcDbEntity
  8
0
100
AcDbBlockEnd
  0
BLOCK
  5
449
330
448
100
AcDbEntity
  8
0
100
AcDbBlockBegin
  2
*D36
 70
     1
 10
0.0
 20
0.0
 30
0.0
  3
*D36
  1

  0
LINE
  5
44B
330
448
100
AcDbEntity
  8
0
  6
Continuous
 62
     0
370
    -2
100
AcDbLine
 10
113.097368880986
 20
4.624096569362705
 30
0.0
 11
113.097368880986
 21
9.633000272096897
 31
0.0
  0
LINE
  5
44C
330
448
100
AcDbEntity
  8
0
  6
Continuous
 62
     0
370
    -2
100
AcDbLine
 10
121.597368880986
 20
4.624096569362705
 30
0.0
 11
121.597368880986
 21
9.633000272096897
 31
0.0
  0
LINE
  5
44D
330
448
100
AcDbEntity
  8
0
  6
Continuous
 62
     0
370
    -2
100
AcDbLine
 10
115.257368880986
 20
7.473000272096896
 30
0.0
 11
119.437368880986
 21
7.473000272096896
 31
0.0
  0
LINE
  5
44E
330
448
100
AcDbEntity
  8
0
  6
Continuous
 62
     0
370
    -2
100
AcDbLine
 10
121.597368880986
 20
7.473000272096896
 30
0.0
 11
123.757368880986
 21
7.473000272096896
 31
0.0
  0
SOLID
  5
44F
330
448
100
AcDbEntity
  8
0
  6
Continuous
 62
     0
100
AcDbTrace
 10
115.257368880986
 20
7.833000272096897
 30
0.0
 11
115.257368880986
 21
7.113000272096896
 31
0.0
 12
113.097368880986
 22
7.473000272096896
 32
0.0
 13
113.097368880986
 23
7.473000272096896
 33
0.0
  0
SOLID
  5
450
330
448
100
AcDbEntity
  8
0
  6
Continuous
 62
     0
100
AcDbTrace
 10
119.437368880986
 20
7.833000272096897
 30
0.0
 11
119.437368880986
 21
7.113000272096896
 31
0.0
 12
121.597368880986
 22
7.473000272096896
 32
0.0
 13
121.597368880986
 23
7.473000272096896
 33
0.0
  0
MTEXT
  5
451
330
448
100
AcDbEntity
  8
0
  6
Continuous
 62
     0
100
AcDbMText
 10
129.697368880986
 20
7.473000272096896
 30
0.0
 40
2.16
 41
0.0
 71
     5
 72
     1
  1
\A1;8.5000
 73
     1
 44
1.0
1001
ACAD
1000
MTEXTBEGIN
1070
    73
1070
     1
1070
    44
1040
1.0
1070
    74
1070
     0
1000
MTEXTEND
  0
POINT
  5
452
330
448
100
AcDbEntity
  8
Defpoints
  6
Continuous
 62
     0
100
AcDbPoint
 10
113.097368880986
 20
3.874096569362705
 30
0.0
  0
POINT
  5
453
330
448
100
AcDbEntity
  8
Defpoints
  6
Continuous
 62
     0
100
AcDbPoint
 10
121.597368880986
 20
3.874096569362705
 30
0.0
  0
POINT
  5
454
330
448
100
AcDbEntity
  8
Defpoints
  6
Continuous
 62
     0
100
AcDbPoint
 10
121.597368880986
 20
7.473000272096896
 30
0.0
  0
ENDBLK
  5
44A
330
448
100
AcDbEntity
  8
0
100
AcDbBlockEnd
  0
BLOCK
  5
458
330
457
100
AcDbEntity
  8
0
100
AcDbBlockBegin
  2
*D37
 70
     1
 10
0.0
 20
0.0
 30
0.0
  3
*D37
  1

  0
LINE
  5
45A
330
457
100
AcDbEntity
  8
0
  6
Continuous
 62
     0
370
    -2
100
AcDbLine
 10
126.8473688809873
 20
-6.875903430637272
 30
0.0
 11
126.8473688809873
 21
-5.465903430636561
 31
0.0
  0
LINE
  5
45B
330
457
100
AcDbEntity
  8
0
  6
Continuous
 62
     0
370
    -2
100
AcDbLine
 10
140.3473688809873
 20
-6.875903430636562
 30
0.0
 11
140.3473688809873
 21
-5.465903430636561
 31
0.0
  0
LINE
  5
45C
330
457
100
AcDbEntity
  8
0
  6
Continuous
 62
     0
370
    -2
100
AcDbLine
 10
124.6873688809873
 20
-7.625903430636562
 30
0.0
 11
122.5273688809873
 21
-7.625903430636562
 31
0.0
  0
LINE
  5
45D
330
457
100
AcDbEntity
  8
0
  6
Continuous
 62
     0
370
    -2
100
AcDbLine
 10
142.5073688809873
 20
-7.625903430636562
 30
0.0
 11
144.6673688809873
 21
-7.625903430636562
 31
0.0
  0
SOLID
  5
45E
330
457
100
AcDbEntity
  8
0
  6
Continuous
 62
     0
100
AcDbTrace
 10
124.6873688809873
 20
-7.265903430636561
 30
0.0
 11
124.6873688809873
 21
-7.985903430636562
 31
0.0
 12
126.8473688809873
 22
-7.625903430636562
 32
0.0
 13
126.8473688809873
 23
-7.625903430636562
 33
0.0
  0
SOLID
  5
45F
330
457
100
AcDbEntity
  8
0
  6
Continuous
 62
     0
100
AcDbTrace
 10
142.5073688809873
 20
-7.265903430636561
 30
0.0
 11
142.5073688809873
 21
-7.985903430636562
 31
0.0
 12
140.3473688809873
 22
-7.625903430636562
 32
0.0
 13
140.3473688809873
 23
-7.625903430636562
 33
0.0
  0
MTEXT
  5
460
330
457
100
AcDbEntity
  8
0
  6
Continuous
 62
     0
100
AcDbMText
 10
133.5973688809873
 20
-7.625903430636562
 30
0.0
 40
2.16
 41
0.0
 71
     5
 72
     1
  1
\A1;13.5000
 73
     1
 44
1.0
1001
ACAD
1000
MTEXTBEGIN
1070
    73
1070
     1
1070
    44
1040
1.0
1070
    74
1070
     0
1000
MTEXTEND
  0
POINT
  5
461
330
457
100
AcDbEntity
  8
Defpoints
  6
Continuous
 62
     0
100
AcDbPoint
 10
126.8473688809873
 20
-7.625903430637272
 30
0.0
  0
POINT
  5
462
330
457
100
AcDbEntity
  8
Defpoints
  6
Continuous
 62
     0
100
AcDbPoint
 10
140.3473688809873
 20
-7.625903430636562
 30
0.0
  0
POINT
  5
463
330
457
100
AcDbEntity
  8
Defpoints
  6
Continuous
 62
     0
100
AcDbPoint
 10
140.3473688809873
 20
-7.625903430636562
 30
0.0
  0
ENDBLK
  5
459
330
457
100
AcDbEntity
  8
0
100
AcDbBlockEnd
  0
BLOCK
  5
468
330
467
100
AcDbEntity
  8
0
100
AcDbBlockBegin
  2
*D38
 70
     1
 10
0.0
 20
0.0
 30
0.0
  3
*D38
  1

  0
LINE
  5
46A
330
467
100
AcDbEntity
  8
0
  6
Continuous
 62
     0
370
    -2
100
AcDbLine
 10
83.84736888098455
 20
4.624096569362712
 30
0.0
 11
83.84736888098455
 21
10.99905700158124
 31
0.0
  0
LINE
  5
46B
330
467
100
AcDbEntity
  8
0
  6
Continuous
 62
     0
370
    -2
100
AcDbLine
 10
89.09736888098455
 20
4.624096569362712
 30
0.0
 11
89.09736888098455
 21
10.99905700158124
 31
0.0
  0
LINE
  5
46C
330
467
100
AcDbEntity
  8
0
  6
Continuous
 62
     0
370
    -2
100
AcDbLine
 10
81.68736888098456
 20
8.839057001581238
 30
0.0
 11
79.52736888098454
 21
8.839057001581238
 31
0.0
  0
LINE
  5
46D
330
467
100
AcDbEntity
  8
0
  6
Continuous
 62
     0
370
    -2
100
AcDbLine
 10
91.25736888098455
 20
8.839057001581238
 30
0.0
 11
93.41736888098454
 21
8.839057001581238
 31
0.0
  0
SOLID
  5
46E
330
467
100
AcDbEntity
  8
0
  6
Continuous
 62
     0
100
AcDbTrace
 10
81.68736888098456
 20
9.199057001581238
 30
0.0
 11
81.68736888098456
 21
8.479057001581239
 31
0.0
 12
83.84736888098455
 22
8.839057001581238
 32
0.0
 13
83.84736888098455
 23
8.839057001581238
 33
0.0
  0
SOLID
  5
46F
330
467
100
AcDbEntity
  8
0
  6
Continuous
 62
     0
100
AcDbTrace
 10
91.25736888098455
 20
9.199057001581238
 30
0.0
 11
91.25736888098455
 21
8.479057001581239
 31
0.0
 12
89.09736888098455
 22
8.839057001581238
 32
0.0
 13
89.09736888098455
 23
8.839057001581238
 33
0.0
  0
MTEXT
  5
470
330
467
100
AcDbEntity
  8
0
  6
Continuous
 62
     0
100
AcDbMText
 10
99.53736888098454
 20
8.839057001581238
 30
0.0
 40
2.16
 41
0.0
 71
     5
 72
     1
  1
\A1;5.2500
 73
     1
 44
1.0
1001
ACAD
1000
MTEXTBEGIN
1070
    73
1070
     1
1070
    44
1040
1.0
1070
    74
1070
     0
1000
MTEXTEND
  0
POINT
  5
471
330
467
100
AcDbEntity
  8
Defpoints
  6
Continuous
 62
     0
100
AcDbPoint
 10
83.84736888098455
 20
3.874096569362712
 30
0.0
  0
POINT
  5
472
330
467
100
AcDbEntity
  8
Defpoints
  6
Continuous
 62
     0
100
AcDbPoint
 10
89.09736888098455
 20
3.874096569362712
 30
0.0
  0
POINT
  5
473
330
467
100
AcDbEntity
  8
Defpoints
  6
Continuous
 62
     0
100
AcDbPoint
 10
89.09736888098455
 20
8.839057001581238
 30
0.0
  0
ENDBLK
  5
469
330
467
100
AcDbEntity
  8
0
100
AcDbBlockEnd
  0
BLOCK
  5
476
330
475
100
AcDbEntity
  8
0
100
AcDbBlockBegin
  2
*D39
 70
     1
 10
0.0
 20
0.0
 30
0.0
  3
*D39
  1

  0
LINE
  5
478
330
475
100
AcDbEntity
  8
0
  6
Continuous
 62
     0
370
    -2
100
AcDbLine
 10
121.597368880986
 20
4.624096569362705
 30
0.0
 11
121.597368880986
 21
11.19752879442305
 31
0.0
  0
LINE
  5
479
330
475
100
AcDbEntity
  8
0
  6
Continuous
 62
     0
370
    -2
100
AcDbLine
 10
126.8473688809873
 20
4.624096569363445
 30
0.0
 11
126.8473688809873
 21
11.19752879442305
 31
0.0
  0
LINE
  5
47A
330
475
100
AcDbEntity
  8
0
  6
Continuous
 62
     0
370
    -2
100
AcDbLine
 10
119.437368880986
 20
9.037528794423053
 30
0.0
 11
117.277368880986
 21
9.037528794423053
 31
0.0
  0
LINE
  5
47B
330
475
100
AcDbEntity
  8
0
  6
Continuous
 62
     0
370
    -2
100
AcDbLine
 10
129.0073688809873
 20
9.037528794423053
 30
0.0
 11
131.1673688809873
 21
9.037528794423053
 31
0.0
  0
SOLID
  5
47C
330
475
100
AcDbEntity
  8
0
  6
Continuous
 62
     0
100
AcDbTrace
 10
119.437368880986
 20
9.397528794423053
 30
0.0
 11
119.437368880986
 21
8.677528794423054
 31
0.0
 12
121.597368880986
 22
9.037528794423053
 32
0.0
 13
121.597368880986
 23
9.037528794423053
 33
0.0
  0
SOLID
  5
47D
330
475
100
AcDbEntity
  8
0
  6
Continuous
 62
     0
100
AcDbTrace
 10
129.0073688809873
 20
9.397528794423053
 30
0.0
 11
129.0073688809873
 21
8.677528794423054
 31
0.0
 12
126.8473688809873
 22
9.037528794423053
 32
0.0
 13
126.8473688809873
 23
9.037528794423053
 33
0.0
  0
MTEXT
  5
47E
330
475
100
AcDbEntity
  8
0
  6
Continuous
 62
     0
100
AcDbMText
 10
137.2873688809873
 20
9.037528794423053
 30
0.0
 40
2.16
 41
0.0
 71
     5
 72
     1
  1
\A1;5.2500
 73
     1
 44
1.0
1001
ACAD
1000
MTEXTBEGIN
1070
    73
1070
     1
1070
    44
1040
1.0
1070
    74
1070
     0
1000
MTEXTEND
  0
POINT
  5
47F
330
475
100
AcDbEntity
  8
Defpoints
  6
Continuous
 62
     0
100
AcDbPoint
 10
121.597368880986
 20
3.874096569362705
 30
0.0
  0
POINT
  5
480
330
475
100
AcDbEntity
  8
Defpoints
  6
Continuous
 62
     0
100
AcDbPoint
 10
126.8473688809873
 20
3.874096569363445
 30
0.0
  0
POINT
  5
481
330
475
100
AcDbEntity
  8
Defpoints
  6
Continuous
 62
     0
100
AcDbPoint
 10
126.8473688809873
 20
9.037528794423053
 30
0.0
  0
ENDBLK
  5
477
330
475
100
AcDbEntity
  8
0
100
AcDbBlockEnd
  0
ENDSEC
  0
SECTION
  2
ENTITIES
  0
REGION
  5
483
330
36
100
AcDbEntity
  8
0
  6
Continuous
100
AcDbModelerGeometry
 70
     1
  1
koo moh n o         
  1
ni ^ *+0;:,4 ^ *+0\^ [ nh ^ LR nmqoqnqfnj QK o  
  1
n fqfffffffffffffffj:rooh n:rono 
  1
=0;& {rn {n {rn {rn |
  1
3*2/ {rn {rn {m {o |
  1
,7:33 {rn {rn {rn {l {rn {n |
  1
9><: {rn {rn {k {m {rn {j 90-(>-; ;0*=3: 0*+ |
  1
300/ {rn {i {h {l |
  1
/3>1:r,*-9><: {rn ljqooooooooooonkhg iqoiiohnkmgjhnognh o o o n n o o 90-(>-;@) V V V V |
  1
300/ {rn {rn {g {l |
  1
<0:;8: {rn {f {no {rn {nn 90-(>-; {k {rn |
  1
<0:;8: {rn {nm {nl {rn {nk 90-(>-; {i {rn |
  1
<0:;8: {rn {nj {h {rn {ni 90-(>-; {k {rn |
  1
<0:;8: {rn {h {nj {rn {nh 90-(>-; {k {rn |
  1
:;8: {rn {ng {nf {h {mo 90-(>-; |
  1
<0:;8: {rn {mn {g {rn {mm 90-(>-; {i {rn |
  1
<0:;8: {rn {g {ml {rn {mk 90-(>-; {i {rn |
  1
:;8: {rn {mj {mi {g {mh 90-(>-; |
  1
<0:;8: {rn {no {f {rn {mg 90-(>-; {k {rn |
  1
:;8: {rn {nf {mf {f {lo 90-(>-; |
  1
:;8: {rn {ln {ng {no {lm 90-(>-; |
  1
):-+:' {rn {nn {ll |
  1
):-+:' {rn {nn {lk |
  1
,+->687+r<*-): {rn njqjoooooooooonlli m o nqoijgnknolikonjol:ronk n o Y o Y k |
  1
<0:;8: {rn {lj {nm {rn {li 90-(>-; {i {rn |
  1
:;8: {rn {mi {lh {nm {lg 90-(>-; |
  1
<0:;8: {rn {nl {lf {rn {ko 90-(>-; {i {rn |
  1
:;8: {rn {kn {mj {nl {km 90-(>-; |
  1
):-+:' {rn {nk {kl |
  1
):-+:' {rn {nk {kk |
  1
,+->687+r<*-): {rn jkqjoooooooooonmij nnqjoooooooooonioi o kqoiomkkmoklkohghj:ronj rn o V V |
  1
:;8: {rn {mf {ln {nj {kj 90-(>-; |
  1
):-+:' {rn {mg {ki |
  1
,+->687+r<*-): {rn njqjoooooooooonlhg i o n mqlhjlohfmhjjhoohh:ronk o Y o Y lgqfffffffffffffon |
  1
):-+:' {rn {nh {kh |
  1
,+->687+r<*-): {rn jkqjoooooooooonmhf mqoooooooooooofmhl o rn rmqlhhjgjlognmollgg:ronk o Y o Y lgqfffffffffffffkl |
  1
/061+ {rn njqjoooooooooonlli m o |
  1
/061+ {rn njqjoooooooooonlhg i o |
  1
<0:;8: {rn {kg {mn {rn {kf 90-(>-; {i {rn |
  1
:;8: {rn {lh {jo {mn {jn 90-(>-; |
  1
):-+:' {rn {mm {jm |
  1
,+->687+r<*-): {rn jkqjoooooooooonmhf hqfffffffffffflmgj o rn o o V V |
  1
<0:;8: {rn {ml {jl {rn {jk 90-(>-; {i {rn |
  1
:;8: {rn {jj {kn {ml {ji 90-(>-; |
  1
):-+:' {rn {ko {jh |
  1
,+->687+r<*-): {rn jnqmjooooooooonkhg nnqkfffffffffffmig o n hqnfjinnimhfofkgik:ronl o V V |
  1
/061+ {rn jkqjoooooooooonmij nnqjoooooooooonioi o |
  1
/061+ {rn jkqjoooooooooonmhf hqfffffffffffflmgj o |
  1
,+->687+r<*-): {rn jkqjoooooooooonmhf iqoooooooooooofmhl o o rn o Y o Y lqfffffffffffffffi |
  1
/061+ {rn jkqjoooooooooonmhf iqoooooooooooofmhl o |
  1
/061+ {rn jkqjoooooooooonmhf mqoooooooooooofmhl o |
  1
<0:;8: {rn {jg {lj {rn {jf 90-(>-; {i {rn |
  1
:;8: {rn {jo {io {lj {in 90-(>-; |
  1
):-+:' {rn {li {im |
  1
,+->687+r<*-): {rn lfqjoooooooooonkfm hqfffffffffffflmgj o o n o V V |
  1
/061+ {rn lfqjoooooooooonkfm hqfffffffffffflmgj o |
  1
<0:;8: {rn {lf {il {rn {ik 90-(>-; {i {rn |
  1
:;8: {rn {ij {jj {lf {ii 90-(>-; |
  1
):-+:' {rn {jk {ih |
  1
,+->687+r<*-): {rn jnqmjooooooooonkhg nlqkfffffffffffmig o o rn o V V |
  1
/061+ {rn jnqmjooooooooonkhg nnqkfffffffffffmig o |
  1
<0:;8: {rn {ig {kg {rn {if 90-(>-; {i {rn |
  1
:;8: {rn {io {ho {kg {hn 90-(>-; |
  1
):-+:' {rn {kf {hm |
  1
,+->687+r<*-): {rn lfqjoooooooooonkfm nnqkfffffffffffmig o n o o V V |
  1
/061+ {rn lfqjoooooooooonkfm nnqkfffffffffffmig o |
  1
<0:;8: {rn {jl {hl {rn {hk 90-(>-; {i {rn |
  1
:;8: {rn {hj {ij {jl {hi 90-(>-; |
  1
):-+:' {rn {ik {hh |
  1
,+->687+r<*-): {rn jiqjoooooooooomg nlqjoooooooooooooh o rn rnqkofmklofmjfojnoi:ronl o V V |
  1
/061+ {rn jnqmjooooooooonkhg nlqkfffffffffffmig o |
  1
<0:;8: {rn {hg {jg {rn {hf 90-(>-; {i {rn |
  1
:;8: {rn {ho {go {jg {gn 90-(>-; |
  1
):-+:' {rn {jf {gm |
  1
,+->687+r<*-): {rn kmqhjooooooooonkfm nnqkfffffffffffmig o rhqnojkmhljhionoonf:ronj n o V V |
  1
/061+ {rn kmqhjooooooooonkfm nnqkfffffffffffmig o |
  1
<0:;8: {rn {il {gl {rn {gk 90-(>-; {i {rn |
  1
:;8: {rn {gj {hj {il {gi 90-(>-; |
  1
):-+:' {rn {hk {gh |
  1
,+->687+r<*-): {rn jiqjoooooooooomg g o o n o V V |
  1
/061+ {rn jiqjoooooooooomg nlqjoooooooooooooh o |
  1
<0:;8: {rn {gg {ig {rn {gf 90-(>-; {i {rn |
  1
:;8: {rn {go {fo {ig {fn 90-(>-; |
  1
):-+:' {rn {if {fm |
  1
,+->687+r<*-): {rn kmqhjooooooooonkhg nlqkfffffffffffmig o rn o o V V |
  1
/061+ {rn kmqhjooooooooonkhg nlqkfffffffffffmig o |
  1
<0:;8: {rn {hl {fl {rn {fk 90-(>-; {i {rn |
  1
:;8: {rn {fj {gj {hl {fi 90-(>-; |
  1
):-+:' {rn {gk {fh |
  1
,+->687+r<*-): {rn hoqooooooooooomg g o rn o o V V |
  1
/061+ {rn jiqjoooooooooomg g o |
  1
<0:;8: {rn {fg {hg {rn {ff 90-(>-; {i {rn |
  1
:;8: {rn {fo {noo {hg {non 90-(>-; |
  1
):-+:' {rn {hf {nom |
  1
,+->687+r<*-): {rn liqooooooooooonkik nlqkfffffffffffmig o rnqolljnihoijionjll:ronk rn o V V |
  1
/061+ {rn liqooooooooooonkik nlqkfffffffffffmig o |
  1
<0:;8: {rn {gl {nol {rn {nok 90-(>-; {i {rn |
  1
:;8: {rn {noj {fj {gl {noi 90-(>-; |
  1
):-+:' {rn {fk {noh |
  1
,+->687+r<*-): {rn hoqooooooooooomg i o o n o V V |
  1
/061+ {rn hoqooooooooooomg g o |
  1
<0:;8: {rn {nog {gg {rn {nof 90-(>-; {i {rn |
  1
:;8: {rn {noo {nno {gg {nnn 90-(>-; |
  1
):-+:' {rn {gf {nnm |
  1
,+->687+r<*-): {rn liqooooooooooonkoh hqfffffffffffflohm o rn nqolmjohknmfonlfji:ronk o V V |
  1
/061+ {rn liqooooooooooonkoh hqfffffffffffflohm o |
  1
<0:;8: {rn {fl {nnl {rn {nnk 90-(>-; {i {rn |
  1
:;8: {rn {nnj {noj {fl {nni 90-(>-; |
  1
):-+:' {rn {nok {nnh |
  1
,+->687+r<*-): {rn jiqjoooooooooomgnk jqffffffffffffmgfj o n jqmiijifohlgjnkgfn:ronk o V V |
  1
/061+ {rn hoqooooooooooomg i o |
  1
<0:;8: {rn {nng {fg {rn {nnf 90-(>-; {i {rn |
  1
:;8: {rn {nno {nmo {fg {nmn 90-(>-; |
  1
):-+:' {rn {ff {nmm |
  1
,+->687+r<*-): {rn lkqooooooooooonkoh hqfffffffffffflmgj o rnqmfngfjgglmoonfii:ronk n o V V |
  1
/061+ {rn lkqooooooooooonkoh hqfffffffffffflmgj o |
  1
<0:;8: {rn {nol {nml {rn {nmk 90-(>-; {i {rn |
  1
:;8: {rn {nmj {nnj {nol {nmi 90-(>-; |
  1
):-+:' {rn {nnk {nmh |
  1
,+->687+r<*-): {rn jiqjoooooooooomgnk nqffffffffffffmgfj o o n o V V |
  1
/061+ {rn jiqjoooooooooomgnk jqffffffffffffmgfj o |
  1
<0:;8: {rn {nmg {nog {rn {nmf 90-(>-; {i {rn |
  1
:;8: {rn {nmo {nlo {nog {nln 90-(>-; |
  1
):-+:' {rn {nof {nlm |
  1
,+->687+r<*-): {rn lkqooooooooooonlli nlqkfffffffffffmig o rn o o V V |
  1
/061+ {rn lkqooooooooooonlli nlqkfffffffffffmig o |
  1
<0:;8: {rn {nnl {nll {rn {nlk 90-(>-; {i {rn |
  1
:;8: {rn {nlj {nmj {nnl {nli 90-(>-; |
  1
):-+:' {rn {nmk {nlh |
  1
,+->687+r<*-): {rn hoqooooooooooomg m o rn rjqmilmhfjmknkggfi:ronk o V V |
  1
/061+ {rn jiqjoooooooooomgnk nqffffffffffffmgfj o |
  1
<0:;8: {rn {nlg {nng {rn {nlf 90-(>-; {i {rn |
  1
:;8: {rn {nlo {nko {nng {nkn 90-(>-; |
  1
):-+:' {rn {nnf {nkm |
  1
,+->687+r<*-): {rn mhqmjooooooooonlmm nlqkfffffffffffmig o o rn o V V |
  1
/061+ {rn mhqmjooooooooonlmm nlqkfffffffffffmig o |
  1
<0:;8: {rn {nml {nkl {rn {nkk 90-(>-; {i {rn |
  1
:;8: {rn {nkj {nlj {nml {nki 90-(>-; |
  1
):-+:' {rn {nlk {nkh |
  1
,+->687+r<*-): {rn hoqooooooooooomg o o o n o V V |
  1
/061+ {rn hoqooooooooooomg m o |
  1
<0:;8: {rn {nkg {nmg {rn {nkf 90-(>-; {i {rn |
  1
:;8: {rn {nko {njo {nmg {njn 90-(>-; |
  1
):-+:' {rn {nmf {njm |
  1
,+->687+r<*-): {rn mhqmjooooooooonlmm nnqkfffffffffffmig o n o o V V |
  1
/061+ {rn mhqmjooooooooonlmm nnqkfffffffffffmig o |
  1
<0:;8: {rn {nll {njl {rn {njk 90-(>-; {i {rn |
  1
:;8: {rn {njj {nkj {nll {nji 90-(>-; |
  1
):-+:' {rn {nkk {njh |
  1
,+->687+r<*-): {rn o o o n o o V V |
  1
/061+ {rn hoqooooooooooomg o o |
  1
<0:;8: {rn {njg {nlg {rn {njf 90-(>-; {i {rn |
  1
:;8: {rn {njo {nio {nlg {nin 90-(>-; |
  1
):-+:' {rn {nlf {nim |
  1
,+->687+r<*-): {rn loqjoooooooooonlmm nnqkfffffffffffmig o rlqgniimfjjmogmgfoi:ronl rn o V V |
  1
/061+ {rn loqjoooooooooonlmm nnqkfffffffffffmig o |
  1
<0:;8: {rn {nkl {nil {rn {nik 90-(>-; {i {rn |
  1
:;8: {rn {nij {njj {nkl {nii 90-(>-; |
  1
):-+:' {rn {njk {nih |
  1
,+->687+r<*-): {rn o nqfffffffffffffffn o o rn o V V |
  1
/061+ {rn o o o |
  1
<0:;8: {rn {nig {nkg {rn {nif 90-(>-; {i {rn |
  1
:;8: {rn {nio {nho {nkg {nhn 90-(>-; |
  1
):-+:' {rn {nkf {nhm |
  1
,+->687+r<*-): {rn loqkffffffffffffgi hqfffffffffffflmgj o rn kqhlifjnjhnhlkooin:roni o V V |
  1
/061+ {rn loqkffffffffffffgi hqfffffffffffflmgj o |
  1
<0:;8: {rn {njl {nhl {rn {nhk 90-(>-; {i {rn |
  1
:;8: {rn {nhj {nij {njl {nhi 90-(>-; |
  1
):-+:' {rn {nik {nhh |
  1
,+->687+r<*-): {rn nlqj nqffffffffffffmggi o rn jqmilmhfjmknkggfol:ronk o V V |
  1
/061+ {rn o nqfffffffffffffffn o |
  1
<0:;8: {rn {nhg {njg {rn {nhf 90-(>-; {i {rn |
  1
:;8: {rn {nho {ngo {njg {ngn 90-(>-; |
  1
):-+:' {rn {njf {ngm |
  1
,+->687+r<*-): {rn njqj hqffffffffffffllji o o n o V V |
  1
/061+ {rn njqj hqffffffffffffllji o |
  1
<0:;8: {rn {nil {ngl {rn {ngk 90-(>-; {i {rn |
  1
:;8: {rn {ngj {nhj {nil {ngi 90-(>-; |
  1
):-+:' {rn {nhk {ngh |
  1
,+->687+r<*-): {rn nlqj jqffffffffffffmgfj o o rn o V V |
  1
/061+ {rn nlqj nqffffffffffffmggi o |
  1
<0:;8: {rn {ngg {nig {rn {ngf 90-(>-; {i {rn |
  1
:;8: {rn {ngo {nfo {nig {nfn 90-(>-; |
  1
):-+:' {rn {nif {nfm |
  1
,+->687+r<*-): {rn njqj nnqkfffffffffffmhj o n rmqngimgjlkogoologk:ronj o V V |
  1
/061+ {rn njqj nnqkfffffffffffmhj o |
  1
<0:;8: {rn {nhl {ngg {rn {nfl 90-(>-; {i {rn |
  1
:;8: {rn {nfk {ngj {nhl {nfj 90-(>-; |
  1
):-+:' {rn {ngk {nfi |
  1
,+->687+r<*-): {rn o i o n rjqmilmhfjmknkggfol:ronk o V V |
  1
/061+ {rn nlqj jqffffffffffffmgfj o |
  1
<0:;8: {rn {ngl {nhg {rn {nfh 90-(>-; {i {rn |
  1
:;8: {rn {nfo {nfg {nhg {nff 90-(>-; |
  1
):-+:' {rn {nhf {moo |
  1
,+->687+r<*-): {rn ngqhj nnqkfffffffffffmig o o n o V V |
  1
/061+ {rn ngqhj nnqkfffffffffffmig o |
  1
:;8: {rn {mon {nfk {ngl {mom 90-(>-; |
  1
):-+:' {rn {nfl {mol |
  1
,+->687+r<*-): {rn o g o o rn o V V |
  1
/061+ {rn o i o |
  1
:;8: {rn {nfg {mon {ngg {mok 90-(>-; |
  1
):-+:' {rn {ngf {moj |
  1
,+->687+r<*-): {rn ngqhj nlqkfffffffffffmig o rn nqljlknkhlkhgnnkln:ronj o V V |
  1
/061+ {rn ngqhj nlqkfffffffffffmig o |
  1
):-+:' {rn {nfh {moi |
  1
,+->687+r<*-): {rn nlqj hqffffffffffffmhjm o rn jqligjkjnnkilngihf:ronk o V V |
  1
/061+ {rn o g o |
  1
,+->687+r<*-): {rn nlqj nlqkfffffffffffmhj o o rn o V V |
  1
/061+ {rn nlqj nlqkfffffffffffmhj o |
  1
/061+ {rn nlqj hqffffffffffffmhjm o |
  0
ENDSEC
  0
SECTION
  2
OBJECTS
  0
DICTIONARY
  5
C
330
0
100
AcDbDictionary
281
     1
  3
ACAD_COLOR
350
2F
  3
ACAD_GROUP
350
D
  3
ACAD_LAYOUT
350
2E
  3
ACAD_MATERIAL
350
10
  3
ACAD_MLEADERSTYLE
350
FD
  3
ACAD_MLINESTYLE
350
2B
  3
ACAD_PLOTSETTINGS
350
2D
  3
ACAD_PLOTSTYLENAME
350
E
  3
ACAD_SCALELIST
350
EB
  3
ACAD_TABLESTYLE
350
30
  3
ACAD_VISUALSTYLE
350
14
  3
ACDB_RECOMPOSE_DATA
350
4B0
  3
AcDbVariableDictionary
350
A0
  3
DWGPROPS
350
4B1
  3
Ks_BoltRefDictionary
350
6D
  3
Ks_HoleDisplayRefDictionary
350
77
  3
Ks_KoteFlagRefDictionary
350
75
  3
Ks_PosFlagRefDictionary
350
76
  3
Ks_ShapeRefDictionary
350
9E
  3
Ks_WeldRefDictionary
350
74
  3
Ks_XRecordDictionary
350
78
  3
PsLizControl
350
54
  0
DICTIONARY
  5
146
330
2
100
AcDbDictionary
280
     1
281
     1
  3
ACAD_LAYERSTATES
360
147
  0
DICTIONARY
  5
484
330
25
100
AcDbDictionary
280
     1
281
     1
  3
ADSK_XREC_LAYER_RECONCILED
360
485
  0
DICTIONARY
  5
10B
330
10A
100
AcDbDictionary
280
     1
281
     1
  3
ADSK_XREC_LAYER_RECONCILED
360
486
  0
DICTIONARY
  5
10D
330
10C
100
AcDbDictionary
280
     1
281
     1
  3
ADSK_XREC_LAYER_RECONCILED
360
487
  0
DICTIONARY
  5
10F
330
10E
100
AcDbDictionary
280
     1
281
     1
  3
ADSK_XREC_LAYER_RECONCILED
360
488
  0
DICTIONARY
  5
111
330
110
100
AcDbDictionary
280
     1
281
     1
  3
ADSK_XREC_LAYER_RECONCILED
360
489
  0
DICTIONARY
  5
113
330
112
100
AcDbDictionary
280
     1
281
     1
  3
ADSK_XREC_LAYER_RECONCILED
360
48A
  0
DICTIONARY
  5
115
330
114
100
AcDbDictionary
280
     1
281
     1
  3
ADSK_XREC_LAYER_RECONCILED
360
48B
  0
DICTIONARY
  5
117
330
116
100
AcDbDictionary
280
     1
281
     1
  3
ADSK_XREC_LAYER_RECONCILED
360
48C
  0
DICTIONARY
  5
119
330
118
100
AcDbDictionary
280
     1
281
     1
  3
ADSK_XREC_LAYER_RECONCILED
360
48D
  0
DICTIONARY
  5
11B
330
11A
100
AcDbDictionary
280
     1
281
     1
  3
ADSK_XREC_LAYER_RECONCILED
360
48E
  0
DICTIONARY
  5
11D
330
11C
100
AcDbDictionary
280
     1
281
     1
  3
ADSK_XREC_LAYER_RECONCILED
360
48F
  0
DICTIONARY
  5
11F
330
11E
100
AcDbDictionary
280
     1
281
     1
  3
ADSK_XREC_LAYER_RECONCILED
360
490
  0
DICTIONARY
  5
121
330
120
100
AcDbDictionary
280
     1
281
     1
  3
ADSK_XREC_LAYER_RECONCILED
360
491
  0
DICTIONARY
  5
123
330
122
100
AcDbDictionary
280
     1
281
     1
  3
ADSK_XREC_LAYER_RECONCILED
360
492
  0
DICTIONARY
  5
125
330
124
100
AcDbDictionary
280
     1
281
     1
  3
ADSK_XREC_LAYER_RECONCILED
360
493
  0
DICTIONARY
  5
127
330
126
100
AcDbDictionary
280
     1
281
     1
  3
ADSK_XREC_LAYER_RECONCILED
360
494
  0
DICTIONARY
  5
129
330
128
100
AcDbDictionary
280
     1
281
     1
  3
ADSK_XREC_LAYER_RECONCILED
360
495
  0
DICTIONARY
  5
12B
330
12A
100
AcDbDictionary
280
     1
281
     1
  3
ADSK_XREC_LAYER_RECONCILED
360
496
  0
DICTIONARY
  5
12D
330
12C
100
AcDbDictionary
280
     1
281
     1
  3
ADSK_XREC_LAYER_RECONCILED
360
497
  0
DICTIONARY
  5
498
330
143
100
AcDbDictionary
280
     1
281
     1
  3
ADSK_XREC_LAYER_RECONCILED
360
499
  0
DICTIONARY
  5
80
330
36
100
AcDbDictionary
280
     1
281
     1
  3
ACAD_SORTENTS
360
81
  0
DICTIONARY
  5
103
330
102
100
AcDbDictionary
280
     1
281
     1
  3
ACAD_SORTENTS
360
104
  0
DICTIONARY
  5
13E
330
13D
100
AcDbDictionary
280
     1
281
     1
  3
ACAD_SORTENTS
360
13F
  0
DICTIONARY
  5
2F
102
{ACAD_REACTORS
330
C
102
}
330
C
100
AcDbDictionary
281
     1
  0
DICTIONARY
  5
D
102
{ACAD_REACTORS
330
C
102
}
330
C
100
AcDbDictionary
281
     1
  0
DICTIONARY
  5
2E
102
{ACAD_REACTORS
330
C
102
}
330
C
100
AcDbDictionary
281
     1
  3
Layout1
350
35
  3
Model
350
39
  0
DICTIONARY
  5
10
102
{ACAD_REACTORS
330
C
102
}
330
C
100
AcDbDictionary
281
     1
  3
ByBlock
350
12
  3
ByLayer
350
11
  3
Global
350
13
  0
DICTIONARY
  5
FD
102
{ACAD_REACTORS
330
C
102
}
330
C
100
AcDbDictionary
281
     1
  3
Standard
350
FE
  0
DICTIONARY
  5
2B
102
{ACAD_REACTORS
330
C
102
}
330
C
100
AcDbDictionary
281
     1
  3
Standard
350
2C
  0
DICTIONARY
  5
2D
102
{ACAD_REACTORS
330
C
102
}
330
C
100
AcDbDictionary
281
     1
  0
ACDBDICTIONARYWDFLT
  5
E
102
{ACAD_REACTORS
330
C
102
}
330
C
100
AcDbDictionary
281
     1
  3
Normal
350
F
100
AcDbDictionaryWithDefault
340
F
  0
DICTIONARY
  5
EB
102
{ACAD_REACTORS
330
C
102
}
330
C
100
AcDbDictionary
281
     1
  3
A0
350
EC
  3
A1
350
ED
  3
A2
350
EE
  3
A3
350
EF
  3
A4
350
F0
  3
A5
350
F1
  3
A6
350
F2
  3
A7
350
F3
  3
A8
350
F4
  3
A9
350
F5
  3
B0
350
F6
  3
B1
350
F7
  3
B2
350
F8
  3
B3
350
F9
  3
B4
350
FA
  3
B5
350
FB
  3
B6
350
FC
  0
DICTIONARY
  5
30
102
{ACAD_REACTORS
330
C
102
}
330
C
100
AcDbDictionary
281
     1
  3
Standard
350
31
  0
DICTIONARY
  5
14
102
{ACAD_REACTORS
330
C
102
}
330
C
100
AcDbDictionary
281
     1
  3
2dWireframe
350
1A
  3
3D Hidden
350
1C
  3
3dWireframe
350
1B
  3
Basic
350
19
  3
Brighten
350
20
  3
ColorChange
350
24
  3
Conceptual
350
1D
  3
Dim
350
1F
  3
Facepattern
350
23
  3
Flat
350
15
  3
FlatWithEdges
350
16
  3
Gouraud
350
17
  3
GouraudWithEdges
350
18
  3
Linepattern
350
22
  3
Realistic
350
1E
  3
Thicken
350
21
  0
XRECORD
  5
4B0
102
{ACAD_REACTORS
330
C
102
}
330
C
100
AcDbXrecord
280
     1
 90
        1
330
31
  0
DICTIONARY
  5
A0
102
{ACAD_REACTORS
330
C
102
}
330
C
100
AcDbDictionary
281
     1
  3
CANNOSCALE
350
49B
  3
CMLEADERSTYLE
350
49A
  3
CTABLESTYLE
350
A1
  3
DIMASSOC
350
A4
  3
INDEXCTL
350
A3
  3
SORTENTS
350
A2
  0
XRECORD
  5
4B1
102
{ACAD_REACTORS
330
C
102
}
330
C
100
AcDbXrecord
280
     1
  1
DWGPROPS COOKIE
  2

  3

  4

  6

  7

  8
Tom
  9

300
=
301
=
302
=
303
=
304
=
305
=
306
=
307
=
308
=
309
=
 40
0.0606985416666667
 41
2454867.130322593
 42
2456057.75225478
  1

 90
        0
  0
DICTIONARY
  5
6D
102
{ACAD_REACTORS
330
C
102
}
330
C
100
AcDbDictionary
281
     1
  0
DICTIONARY
  5
77
102
{ACAD_REACTORS
330
C
102
}
330
C
100
AcDbDictionary
281
     1
  0
DICTIONARY
  5
75
102
{ACAD_REACTORS
330
C
102
}
330
C
100
AcDbDictionary
281
     1
  0
DICTIONARY
  5
76
102
{ACAD_REACTORS
330
C
102
}
330
C
100
AcDbDictionary
281
     1
  0
DICTIONARY
  5
9E
102
{ACAD_REACTORS
330
C
102
}
330
C
100
AcDbDictionary
281
     1
  0
DICTIONARY
  5
74
102
{ACAD_REACTORS
330
C
102
}
330
C
100
AcDbDictionary
281
     1
  0
DICTIONARY
  5
78
102
{ACAD_REACTORS
330
C
102
}
330
C
100
AcDbDictionary
281
     1
  3
KS_MEASUREMENT
350
79
  3
PsAreaDictionary_17
350
7C
  3
PsHideDictionary_17
350
7B
  3
PsSCreenSettings
350
9F
  0
DICTIONARY
  5
54
102
{ACAD_REACTORS
330
C
102
}
330
C
100
AcDbDictionary
281
     1
  3
0
350
55
  0
DICTIONARY
  5
147
102
{ACAD_REACTORS
330
146
102
}
330
146
100
AcDbDictionary
281
     1
  0
XRECORD
  5
485
102
{ACAD_REACTORS
330
484
102
}
330
484
100
AcDbXrecord
280
     1
290
     1
  0
XRECORD
  5
486
102
{ACAD_REACTORS
330
10B
102
}
330
10B
100
AcDbXrecord
280
     1
290
     1
  0
XRECORD
  5
487
102
{ACAD_REACTORS
330
10D
102
}
330
10D
100
AcDbXrecord
280
     1
290
     1
  0
XRECORD
  5
488
102
{ACAD_REACTORS
330
10F
102
}
330
10F
100
AcDbXrecord
280
     1
290
     1
  0
XRECORD
  5
489
102
{ACAD_REACTORS
330
111
102
}
330
111
100
AcDbXrecord
280
     1
290
     1
  0
XRECORD
  5
48A
102
{ACAD_REACTORS
330
113
102
}
330
113
100
AcDbXrecord
280
     1
290
     1
  0
XRECORD
  5
48B
102
{ACAD_REACTORS
330
115
102
}
330
115
100
AcDbXrecord
280
     1
290
     1
  0
XRECORD
  5
48C
102
{ACAD_REACTORS
330
117
102
}
330
117
100
AcDbXrecord
280
     1
290
     1
  0
XRECORD
  5
48D
102
{ACAD_REACTORS
330
119
102
}
330
119
100
AcDbXrecord
280
     1
290
     1
  0
XRECORD
  5
48E
102
{ACAD_REACTORS
330
11B
102
}
330
11B
100
AcDbXrecord
280
     1
290
     1
  0
XRECORD
  5
48F
102
{ACAD_REACTORS
330
11D
102
}
330
11D
100
AcDbXrecord
280
     1
290
     1
  0
XRECORD
  5
490
102
{ACAD_REACTORS
330
11F
102
}
330
11F
100
AcDbXrecord
280
     1
290
     1
  0
XRECORD
  5
491
102
{ACAD_REACTORS
330
121
102
}
330
121
100
AcDbXrecord
280
     1
290
     1
  0
XRECORD
  5
492
102
{ACAD_REACTORS
330
123
102
}
330
123
100
AcDbXrecord
280
     1
290
     1
  0
XRECORD
  5
493
102
{ACAD_REACTORS
330
125
102
}
330
125
100
AcDbXrecord
280
     1
290
     1
  0
XRECORD
  5
494
102
{ACAD_REACTORS
330
127
102
}
330
127
100
AcDbXrecord
280
     1
290
     1
  0
XRECORD
  5
495
102
{ACAD_REACTORS
330
129
102
}
330
129
100
AcDbXrecord
280
     1
290
     1
  0
XRECORD
  5
496
102
{ACAD_REACTORS
330
12B
102
}
330
12B
100
AcDbXrecord
280
     1
290
     1
  0
XRECORD
  5
497
102
{ACAD_REACTORS
330
12D
102
}
330
12D
100
AcDbXrecord
280
     1
290
     1
  0
XRECORD
  5
499
102
{ACAD_REACTORS
330
498
102
}
330
498
100
AcDbXrecord
280
     1
290
     1
  0
SORTENTSTABLE
  5
81
102
{ACAD_REACTORS
330
80
102
}
330
80
100
AcDbSortentsTable
330
36
  0
SORTENTSTABLE
  5
104
102
{ACAD_REACTORS
330
103
102
}
330
103
100
AcDbSortentsTable
330
102
  0
SORTENTSTABLE
  5
13F
102
{ACAD_REACTORS
330
13E
102
}
330
13E
100
AcDbSortentsTable
330
13D
  0
LAYOUT
  5
35
102
{ACAD_XDICTIONARY
360
4B3
102
}
102
{ACAD_REACTORS
330
2E
102
}
330
2E
100
AcDbPlotSettings
  1

  2
\\PDC1\KONICA MINOLTA C351 PCL
  4

  6

 40
0.0
 41
0.0
 42
0.0
 43
0.0
 44
0.0
 45
0.0
 46
0.0
 47
0.0
 48
0.0
 49
0.0
140
0.0
141
0.0
142
1.0
143
1.0
 70
   688
 72
     0
 73
     0
 74
     5
  7

 75
    16
147
1.0
148
0.0
149
0.0
100
AcDbLayout
  1
Layout1
 70
     1
 71
     1
 10
0.0
 20
0.0
 11
12.0
 21
9.0
 12
0.0
 22
0.0
 32
0.0
 14
1.000000000000000E+20
 24
1.000000000000000E+20
 34
1.000000000000000E+20
 15
-1.000000000000000E+20
 25
-1.000000000000000E+20
 35
-1.000000000000000E+20
146
0.0
 13
0.0
 23
0.0
 33
0.0
 16
1.0
 26
0.0
 36
0.0
 17
0.0
 27
1.0
 37
0.0
 76
     0
330
32
  0
LAYOUT
  5
39
102
{ACAD_XDICTIONARY
360
4B5
102
}
102
{ACAD_REACTORS
330
2E
102
}
330
2E
100
AcDbPlotSettings
  1

  2
\\PDC1\KONICA MINOLTA C351 PCL
  4

  6

 40
0.0
 41
0.0
 42
0.0
 43
0.0
 44
0.0
 45
0.0
 46
0.0
 47
0.0
 48
0.0
 49
0.0
140
0.0
141
0.0
142
1.0
143
1.0
 70
  1712
 72
     0
 73
     0
 74
     0
  7

 75
     0
147
1.0
148
0.0
149
0.0
100
AcDbLayout
  1
Model
 70
     1
 71
     0
 10
0.0
 20
0.0
 11
12.0
 21
9.0
 12
0.0
 22
0.0
 32
0.0
 14
0.0
 24
0.0
 34
0.0
 15
0.0
 25
0.0
 35
0.0
146
0.0
 13
0.0
 23
0.0
 33
0.0
 16
1.0
 26
0.0
 36
0.0
 17
0.0
 27
1.0
 37
0.0
 76
     0
330
36
331
3D
  0
MATERIAL
  5
12
102
{ACAD_XDICTIONARY
360
A8
102
}
102
{ACAD_REACTORS
330
10
102
}
330
10
100
AcDbMaterial
  1
ByBlock
  0
MATERIAL
  5
11
102
{ACAD_XDICTIONARY
360
A6
102
}
102
{ACAD_REACTORS
330
10
102
}
330
10
100
AcDbMaterial
  1
ByLayer
  0
MATERIAL
  5
13
102
{ACAD_XDICTIONARY
360
AA
102
}
102
{ACAD_REACTORS
330
10
102
}
330
10
100
AcDbMaterial
  1
Global
  0
MLEADERSTYLE
  5
FE
102
{ACAD_REACTORS
330
FD
102
}
330
FD
100
AcDbMLeaderStyle
170
     2
171
     1
172
     0
 90
        2
 40
0.0
 41
0.0
173
     1
 91
-1056964608
340
28
 92
       -2
290
     1
 42
2.0
291
     1
 43
0.36
  3
Standard
 44
4.0
300

342
26
174
     1
178
     6
175
     1
176
     0
 93
-1056964608
 45
4.0
292
     0
297
     0
 46
4.0
 94
-1056964608
 47
1.0
 49
1.0
140
1.0
293
     1
141
0.0
294
     1
177
     0
142
1.0
295
     0
296
     0
143
0.125
1001
ACAD_MLEADERVER
1070
     2
  0
MLINESTYLE
  5
2C
102
{ACAD_REACTORS
330
2B
102
}
330
2B
100
AcDbMlineStyle
  2
STANDARD
 70
     0
  3

 62
   256
 51
90.0
 52
90.0
 71
     2
 49
0.5
 62
   256
  6
BYLAYER
 49
-0.5
 62
   256
  6
BYLAYER
  0
ACDBPLACEHOLDER
  5
F
102
{ACAD_REACTORS
330
E
102
}
330
E
  0
SCALE
  5
EC
102
{ACAD_REACTORS
330
EB
102
}
330
EB
100
AcDbScale
 70
     0
300
1:1
140
1.0
141
1.0
290
     1
  0
SCALE
  5
ED
102
{ACAD_REACTORS
330
EB
102
}
330
EB
100
AcDbScale
 70
     0
300
1:2
140
1.0
141
2.0
290
     0
  0
SCALE
  5
EE
102
{ACAD_REACTORS
330
EB
102
}
330
EB
100
AcDbScale
 70
     0
300
1:4
140
1.0
141
4.0
290
     0
  0
SCALE
  5
EF
102
{ACAD_REACTORS
330
EB
102
}
330
EB
100
AcDbScale
 70
     0
300
1:5
140
1.0
141
5.0
290
     0
  0
SCALE
  5
F0
102
{ACAD_REACTORS
330
EB
102
}
330
EB
100
AcDbScale
 70
     0
300
1:8
140
1.0
141
8.0
290
     0
  0
SCALE
  5
F1
102
{ACAD_REACTORS
330
EB
102
}
330
EB
100
AcDbScale
 70
     0
300
1:10
140
1.0
141
10.0
290
     0
  0
SCALE
  5
F2
102
{ACAD_REACTORS
330
EB
102
}
330
EB
100
AcDbScale
 70
     0
300
1:16
140
1.0
141
16.0
290
     0
  0
SCALE
  5
F3
102
{ACAD_REACTORS
330
EB
102
}
330
EB
100
AcDbScale
 70
     0
300
1:20
140
1.0
141
20.0
290
     0
  0
SCALE
  5
F4
102
{ACAD_REACTORS
330
EB
102
}
330
EB
100
AcDbScale
 70
     0
300
1:30
140
1.0
141
30.0
290
     0
  0
SCALE
  5
F5
102
{ACAD_REACTORS
330
EB
102
}
330
EB
100
AcDbScale
 70
     0
300
1:40
140
1.0
141
40.0
290
     0
  0
SCALE
  5
F6
102
{ACAD_REACTORS
330
EB
102
}
330
EB
100
AcDbScale
 70
     0
300
1:50
140
1.0
141
50.0
290
     0
  0
SCALE
  5
F7
102
{ACAD_REACTORS
330
EB
102
}
330
EB
100
AcDbScale
 70
     0
300
1:100
140
1.0
141
100.0
290
     0
  0
SCALE
  5
F8
102
{ACAD_REACTORS
330
EB
102
}
330
EB
100
AcDbScale
 70
     0
300
2:1
140
2.0
141
1.0
290
     0
  0
SCALE
  5
F9
102
{ACAD_REACTORS
330
EB
102
}
330
EB
100
AcDbScale
 70
     0
300
4:1
140
4.0
141
1.0
290
     0
  0
SCALE
  5
FA
102
{ACAD_REACTORS
330
EB
102
}
330
EB
100
AcDbScale
 70
     0
300
8:1
140
8.0
141
1.0
290
     0
  0
SCALE
  5
FB
102
{ACAD_REACTORS
330
EB
102
}
330
EB
100
AcDbScale
 70
     0
300
10:1
140
10.0
141
1.0
290
     0
  0
SCALE
  5
FC
102
{ACAD_REACTORS
330
EB
102
}
330
EB
100
AcDbScale
 70
     0
300
100:1
140
100.0
141
1.0
290
     0
  0
TABLESTYLE
  5
31
102
{ACAD_XDICTIONARY
360
4AE
102
}
102
{ACAD_REACTORS
330
30
102
}
330
30
100
AcDbTableStyle
  3
Standard
 70
     0
 71
     0
 40
0.06
 41
0.06
280
     0
281
     0
  7
Standard
140
0.18
170
     2
 62
     0
 63
     7
283
     0
274
    -2
284
     1
 64
     0
275
    -2
285
     1
 65
     0
276
    -2
286
     1
 66
     0
277
    -2
287
     1
 67
     0
278
    -2
288
     1
 68
     0
279
    -2
289
     1
 69
     0
  7
Standard
140
0.25
170
     5
 62
     0
 63
     7
283
     0
274
    -2
284
     1
 64
     0
275
    -2
285
     1
 65
     0
276
    -2
286
     1
 66
     0
277
    -2
287
     1
 67
     0
278
    -2
288
     1
 68
     0
279
    -2
289
     1
 69
     0
  7
Standard
140
0.18
170
     5
 62
     0
 63
     7
283
     0
274
    -2
284
     1
 64
     0
275
    -2
285
     1
 65
     0
276
    -2
286
     1
 66
     0
277
    -2
287
     1
 67
     0
278
    -2
288
     1
 68
     0
279
    -2
289
     1
 69
     0
  0
VISUALSTYLE
  5
1A
102
{ACAD_REACTORS
330
14
102
}
330
14
100
AcDbVisualStyle
  2
2dWireframe
 70
     4
 71
     0
 72
     2
 73
     0
 90
        0
 40
-0.6
 41
-30.0
 62
     5
 63
     7
 74
     1
 91
        4
 64
     7
 65
   257
 75
     1
175
     1
 42
1.0
 92
        0
 66
   257
 43
1.0
 76
     1
 77
     6
 78
     2
 67
     7
 79
     5
170
     0
171
     0
290
     0
174
     0
 93
        1
 44
0.0
173
     0
291
     0
 45
0.0
1001
ACAD
1000
AcDbSavedByObjectVersion
1070
     0
1000
AcDbSavedByObjectVersion
1070
     0
1000
AcDbSavedByObjectVersion
1070
     0
1000
AcDbSavedByObjectVersion
1070
     0
  0
VISUALSTYLE
  5
1C
102
{ACAD_REACTORS
330
14
102
}
330
14
100
AcDbVisualStyle
  2
3D Hidden
 70
     6
 71
     1
 72
     2
 73
     2
 90
        0
 40
-0.6
 41
-30.0
 62
     5
 63
     7
 74
     2
 91
        2
 64
     7
 65
   257
 75
     2
175
     1
 42
40.0
 92
        0
 66
   257
 43
1.0
 76
     1
 77
     6
 78
     2
 67
     7
 79
     3
170
     0
171
     0
290
     0
174
     0
 93
        1
 44
0.0
173
     0
291
     0
 45
0.0
1001
ACAD
1000
AcDbSavedByObjectVersion
1070
     0
1000
AcDbSavedByObjectVersion
1070
     0
1000
AcDbSavedByObjectVersion
1070
     0
1000
AcDbSavedByObjectVersion
1070
     0
  0
VISUALSTYLE
  5
1B
102
{ACAD_REACTORS
330
14
102
}
330
14
100
AcDbVisualStyle
  2
3dWireframe
 70
     5
 71
     0
 72
     2
 73
     0
 90
        0
 40
-0.6
 41
-30.0
 62
     5
 63
     7
 74
     1
 91
        4
 64
     7
 65
   257
 75
     1
175
     1
 42
1.0
 92
        0
 66
   257
 43
1.0
 76
     1
 77
     6
 78
     2
 67
     7
 79
     5
170
     0
171
     0
290
     0
174
     0
 93
        1
 44
0.0
173
     0
291
     0
 45
0.0
1001
ACAD
1000
AcDbSavedByObjectVersion
1070
     0
1000
AcDbSavedByObjectVersion
1070
     0
1000
AcDbSavedByObjectVersion
1070
     0
1000
AcDbSavedByObjectVersion
1070
     0
  0
VISUALSTYLE
  5
19
102
{ACAD_REACTORS
330
14
102
}
330
14
100
AcDbVisualStyle
  2
Basic
 70
     7
 71
     1
 72
     0
 73
     1
 90
        0
 40
-0.6
 41
-30.0
 62
     5
 63
     7
 74
     0
 91
        4
 64
     7
 65
   257
 75
     1
175
     1
 42
1.0
 92
        8
 66
     7
 43
1.0
 76
     1
 77
     6
 78
     2
 67
     7
 79
     5
170
     0
171
     0
290
     0
174
     0
 93
        1
 44
0.0
173
     0
291
     1
 45
0.0
1001
ACAD
1000
AcDbSavedByObjectVersion
1070
     0
1000
AcDbSavedByObjectVersion
1070
     0
1000
AcDbSavedByObjectVersion
1070
     0
1000
AcDbSavedByObjectVersion
1070
     0
  0
VISUALSTYLE
  5
20
102
{ACAD_REACTORS
330
14
102
}
330
14
100
AcDbVisualStyle
  2
Brighten
 70
    12
 71
     2
 72
     2
 73
     0
 90
        0
 40
-0.6
 41
-30.0
 62
     5
 63
     7
 74
     1
 91
        4
 64
     7
 65
   257
 75
     1
175
     1
 42
1.0
 92
        8
 66
     7
 43
1.0
 76
     1
 77
     6
 78
     2
 67
     7
 79
     5
170
     0
171
     0
290
     0
174
     0
 93
        1
 44
50.0
173
     0
291
     1
 45
0.0
1001
ACAD
1000
AcDbSavedByObjectVersion
1070
     0
1000
AcDbSavedByObjectVersion
1070
     0
1000
AcDbSavedByObjectVersion
1070
     0
1000
AcDbSavedByObjectVersion
1070
     0
  0
VISUALSTYLE
  5
24
102
{ACAD_REACTORS
330
14
102
}
330
14
100
AcDbVisualStyle
  2
ColorChange
 70
    16
 71
     2
 72
     2
 73
     3
 90
        0
 40
-0.6
 41
-30.0
 62
     5
 63
     8
 74
     1
 91
        4
 64
     7
 65
   257
 75
     1
175
     1
 42
1.0
 92
        8
 66
     8
 43
1.0
 76
     1
 77
     6
 78
     2
 67
     7
 79
     5
170
     0
171
     0
290
     0
174
     0
 93
        1
 44
0.0
173
     0
291
     1
 45
0.0
1001
ACAD
1000
AcDbSavedByObjectVersion
1070
     0
1000
AcDbSavedByObjectVersion
1070
     0
1000
AcDbSavedByObjectVersion
1070
     0
1000
AcDbSavedByObjectVersion
1070
     0
  0
VISUALSTYLE
  5
1D
102
{ACAD_REACTORS
330
14
102
}
330
14
100
AcDbVisualStyle
  2
Conceptual
 70
     9
 71
     3
 72
     2
 73
     0
 90
        0
 40
-0.6
 41
-30.0
 62
     5
 63
     7
 74
     2
 91
        2
 64
     7
 65
   257
 75
     1
175
     1
 42
40.0
 92
        8
 66
     7
 43
1.0
 76
     1
 77
     6
 78
     2
 67
     7
 79
     3
170
     0
171
     0
290
     0
174
     0
 93
        1
 44
0.0
173
     0
291
     0
 45
0.0
1001
ACAD
1000
AcDbSavedByObjectVersion
1070
     0
1000
AcDbSavedByObjectVersion
1070
     0
1000
AcDbSavedByObjectVersion
1070
     0
1000
AcDbSavedByObjectVersion
1070
     0
  0
VISUALSTYLE
  5
1F
102
{ACAD_REACTORS
330
14
102
}
330
14
100
AcDbVisualStyle
  2
Dim
 70
    11
 71
     2
 72
     2
 73
     0
 90
        0
 40
-0.6
 41
-30.0
 62
     5
 63
     7
 74
     1
 91
        4
 64
     7
 65
   257
 75
     1
175
     1
 42
1.0
 92
        8
 66
     7
 43
1.0
 76
     1
 77
     6
 78
     2
 67
     7
 79
     5
170
     0
171
     0
290
     0
174
     0
 93
        1
 44
-50.0
173
     0
291
     1
 45
0.0
1001
ACAD
1000
AcDbSavedByObjectVersion
1070
     0
1000
AcDbSavedByObjectVersion
1070
     0
1000
AcDbSavedByObjectVersion
1070
     0
1000
AcDbSavedByObjectVersion
1070
     0
  0
VISUALSTYLE
  5
23
102
{ACAD_REACTORS
330
14
102
}
330
14
100
AcDbVisualStyle
  2
Facepattern
 70
    15
 71
     2
 72
     2
 73
     0
 90
        0
 40
-0.6
 41
-30.0
 62
     5
 63
     7
 74
     1
 91
        4
 64
     7
 65
   257
 75
     1
175
     1
 42
1.0
 92
        8
 66
     7
 43
1.0
 76
     1
 77
     6
 78
     2
 67
     7
 79
     5
170
     0
171
     0
290
     0
174
     0
 93
        1
 44
0.0
173
     0
291
     1
 45
0.0
1001
ACAD
1000
AcDbSavedByObjectVersion
1070
     0
1000
AcDbSavedByObjectVersion
1070
     0
1000
AcDbSavedByObjectVersion
1070
     0
1000
AcDbSavedByObjectVersion
1070
     0
  0
VISUALSTYLE
  5
15
102
{ACAD_REACTORS
330
14
102
}
330
14
100
AcDbVisualStyle
  2
Flat
 70
     0
 71
     2
 72
     1
 73
     1
 90
        2
 40
-0.6
 41
30.0
 62
     5
 63
     7
 74
     0
 91
        4
 64
     7
 65
   257
 75
     1
175
     1
 42
1.0
 92
        8
 66
     7
 43
1.0
 76
     1
 77
     6
 78
     2
 67
     7
 79
     5
170
     0
171
     0
290
     0
174
     0
 93
       13
 44
0.0
173
     0
291
     1
 45
0.0
1001
ACAD
1000
AcDbSavedByObjectVersion
1070
     0
1000
AcDbSavedByObjectVersion
1070
     0
1000
AcDbSavedByObjectVersion
1070
     0
1000
AcDbSavedByObjectVersion
1070
     0
  0
VISUALSTYLE
  5
16
102
{ACAD_REACTORS
330
14
102
}
330
14
100
AcDbVisualStyle
  2
FlatWithEdges
 70
     1
 71
     2
 72
     1
 73
     1
 90
        2
 40
-0.6
 41
30.0
 62
     5
 63
     7
 74
     1
 91
        4
 64
     7
 65
   257
 75
     1
175
     1
 42
1.0
 92
        0
 66
   257
 43
1.0
 76
     1
 77
     6
 78
     2
 67
     7
 79
     5
170
     0
171
     0
290
     0
174
     0
 93
       13
 44
0.0
173
     0
291
     1
 45
0.0
1001
ACAD
1000
AcDbSavedByObjectVersion
1070
     0
1000
AcDbSavedByObjectVersion
1070
     0
1000
AcDbSavedByObjectVersion
1070
     0
1000
AcDbSavedByObjectVersion
1070
     0
  0
VISUALSTYLE
  5
17
102
{ACAD_REACTORS
330
14
102
}
330
14
100
AcDbVisualStyle
  2
Gouraud
 70
     2
 71
     2
 72
     2
 73
     1
 90
        2
 40
-0.6
 41
30.0
 62
     5
 63
     7
 74
     0
 91
        4
 64
     7
 65
   257
 75
     1
175
     1
 42
1.0
 92
        0
 66
     7
 43
1.0
 76
     1
 77
     6
 78
     2
 67
     7
 79
     5
170
     0
171
     0
290
     0
174
     0
 93
       13
 44
0.0
173
     0
291
     1
 45
0.0
1001
ACAD
1000
AcDbSavedByObjectVersion
1070
     0
1000
AcDbSavedByObjectVersion
1070
     0
1000
AcDbSavedByObjectVersion
1070
     0
1000
AcDbSavedByObjectVersion
1070
     0
  0
VISUALSTYLE
  5
18
102
{ACAD_REACTORS
330
14
102
}
330
14
100
AcDbVisualStyle
  2
GouraudWithEdges
 70
     3
 71
     2
 72
     2
 73
     1
 90
        2
 40
-0.6
 41
30.0
 62
     5
 63
     7
 74
     1
 91
        4
 64
     7
 65
   257
 75
     1
175
     1
 42
1.0
 92
        0
 66
   257
 43
1.0
 76
     1
 77
     6
 78
     2
 67
     7
 79
     5
170
     0
171
     0
290
     0
174
     0
 93
       13
 44
0.0
173
     0
291
     1
 45
0.0
1001
ACAD
1000
AcDbSavedByObjectVersion
1070
     0
1000
AcDbSavedByObjectVersion
1070
     0
1000
AcDbSavedByObjectVersion
1070
     0
1000
AcDbSavedByObjectVersion
1070
     0
  0
VISUALSTYLE
  5
22
102
{ACAD_REACTORS
330
14
102
}
330
14
100
AcDbVisualStyle
  2
Linepattern
 70
    14
 71
     2
 72
     2
 73
     0
 90
        0
 40
-0.6
 41
-30.0
 62
     5
 63
     7
 74
     1
 91
        4
 64
     7
 65
   257
 75
     7
175
     7
 42
1.0
 92
        8
 66
     7
 43
1.0
 76
     1
 77
     6
 78
     2
 67
     7
 79
     5
170
     0
171
     0
290
     0
174
     0
 93
        1
 44
0.0
173
     0
291
     1
 45
0.0
1001
ACAD
1000
AcDbSavedByObjectVersion
1070
     0
1000
AcDbSavedByObjectVersion
1070
     0
1000
AcDbSavedByObjectVersion
1070
     0
1000
AcDbSavedByObjectVersion
1070
     0
  0
VISUALSTYLE
  5
1E
102
{ACAD_REACTORS
330
14
102
}
330
14
100
AcDbVisualStyle
  2
Realistic
 70
     8
 71
     2
 72
     2
 73
     0
 90
        0
 40
-0.6
 41
-30.0
 62
     5
 63
     7
 74
     1
 91
        0
 64
     7
 65
   257
 75
     1
175
     1
 42
1.0
 92
        8
 66
     8
 43
1.0
 76
     1
 77
     6
 78
     2
 67
     7
 79
     5
170
     0
171
     0
290
     0
174
     0
 93
       13
 44
0.0
173
     0
291
     0
 45
0.0
1001
ACAD
1000
AcDbSavedByObjectVersion
1070
     0
1000
AcDbSavedByObjectVersion
1070
     0
1000
AcDbSavedByObjectVersion
1070
     0
1000
AcDbSavedByObjectVersion
1070
     0
  0
VISUALSTYLE
  5
21
102
{ACAD_REACTORS
330
14
102
}
330
14
100
AcDbVisualStyle
  2
Thicken
 70
    13
 71
     2
 72
     2
 73
     0
 90
        0
 40
-0.6
 41
-30.0
 62
     5
 63
     7
 74
     1
 91
        4
 64
     7
 65
   257
 75
     1
175
     1
 42
1.0
 92
       12
 66
     7
 43
1.0
 76
     1
 77
     6
 78
     2
 67
     7
 79
     5
170
     0
171
     0
290
     0
174
     0
 93
        1
 44
0.0
173
     0
291
     1
 45
0.0
1001
ACAD
1000
AcDbSavedByObjectVersion
1070
     0
1000
AcDbSavedByObjectVersion
1070
     0
1000
AcDbSavedByObjectVersion
1070
     0
1000
AcDbSavedByObjectVersion
1070
     0
  0
DICTIONARYVAR
  5
49B
102
{ACAD_REACTORS
330
A0
102
}
330
A0
100
DictionaryVariables
280
     0
  1
1:1
  0
DICTIONARYVAR
  5
49A
102
{ACAD_REACTORS
330
A0
102
}
330
A0
100
DictionaryVariables
280
     0
  1
STANDARD
  0
DICTIONARYVAR
  5
A1
102
{ACAD_REACTORS
330
A0
102
}
330
A0
100
DictionaryVariables
280
     0
  1
STANDARD
  0
DICTIONARYVAR
  5
A4
102
{ACAD_REACTORS
330
A0
102
}
330
A0
100
DictionaryVariables
280
     0
  1
1
  0
DICTIONARYVAR
  5
A3
102
{ACAD_REACTORS
330
A0
102
}
330
A0
100
DictionaryVariables
280
     0
  1
0
  0
DICTIONARYVAR
  5
A2
102
{ACAD_REACTORS
330
A0
102
}
330
A0
100
DictionaryVariables
280
     0
  1
127
  0
XRECORD
  5
79
102
{ACAD_REACTORS
330
78
102
}
330
78
100
AcDbXrecord
280
     1
 70
     1
  0
XRECORD
  5
7C
102
{ACAD_REACTORS
330
78
102
}
330
78
100
AcDbXrecord
280
     1
 70
     1
  1

 70
     0
  1

 70
     0
  1

 70
     0
  1

 70
     0
  1

 70
     0
  1

 70
     0
  1

 70
     0
  1

 70
     0
  1

 70
     0
  1

 70
     0
  1

 70
     0
  1

 70
     0
  1

 70
     0
  1

 70
     0
  1

 70
     0
  1

 70
     0
  1

 70
     0
  1

 70
     0
  1

 70
     0
  1

 70
     0
  1

 70
     0
  1

 70
     0
  1

 70
     0
  1

 70
     0
  1

 70
     0
  1

 70
     0
  1

 70
     0
  1

 70
     0
  1

 70
     0
  1

 70
     0
  1

 70
     0
  1

 70
     0
  1

 70
     0
  1

 70
     0
  1

 70
     0
  1

 70
     0
  1

 70
     0
  1

 70
     0
  1

 70
     0
  1

 70
     0
  1

 70
     0
  1

 70
     0
  1

 70
     0
  1

 70
     0
  1

 70
     0
  1

 70
     0
  1

 70
     0
  1

 70
     0
  1

 70
     0
  1

 70
     0
  1

 70
     0
  1

 70
     0
  1

 70
     0
  1

 70
     0
  1

 70
     0
  1

 70
     0
  1

 70
     0
  1

 70
     0
  1

 70
     0
  1

 70
     0
  1

 70
     0
  1

 70
     0
  1

 70
     0
  1

 70
     0
  1

 70
     0
  1

 70
     0
  1

 70
     0
  1

 70
     0
  1

 70
     0
  1

 70
     0
  1

 70
     0
  1

 70
     0
  1

 70
     0
  1

 70
     0
  1

 70
     0
  1

 70
     0
  1

 70
     0
  1

 70
     0
  1

 70
     0
  1

 70
     0
  1

 70
     0
  1

 70
     0
  1

 70
     0
  1

 70
     0
  1

 70
     0
  1

 70
     0
  1

 70
     0
  1

 70
     0
  1

 70
     0
  1

 70
     0
  1

 70
     0
  1

 70
     0
  1

 70
     0
  1

 70
     0
  1

 70
     0
  1

 70
     0
  1

 70
     0
  1

 70
     0
  1

 70
     0
  1

 70
     0
  1

 70
     0
  1

 70
     0
  1

 70
     0
  1

 70
     0
  1

 70
     0
  1

 70
     0
  1

 70
     0
  1

 70
     0
  1

 70
     0
  1

 70
     0
  1

 70
     0
  1

 70
     0
  1

 70
     0
  1

 70
     0
  1

 70
     0
  1

 70
     0
  1

 70
     0
  1

 70
     0
  1

 70
     0
  1

 70
     0
  1

 70
     0
  1

 70
     0
  1

 70
     0
  1

 70
     0
  1

 70
     0
  1

 70
     0
  1

 70
     0
  1

 70
     0
  0
XRECORD
  5
7B
102
{ACAD_REACTORS
330
78
102
}
330
78
100
AcDbXrecord
280
     1
 70
     1
  1

 70
     0
  1

 70
     0
  1

 70
     0
  1

 70
     0
  1

 70
     0
  1

 70
     0
  1

 70
     0
  1

 70
     0
  1

 70
     0
  1

 70
     0
  1

 70
     0
  1

 70
     0
  1

 70
     0
  1

 70
     0
  1

 70
     0
  1

 70
     0
  1

 70
     0
  1

 70
     0
  1

 70
     0
  1

 70
     0
  1

 70
     0
  1

 70
     0
  1

 70
     0
  1

 70
     0
  1

 70
     0
  1

 70
     0
  1

 70
     0
  1

 70
     0
  1

 70
     0
  1

 70
     0
  1

 70
     0
  1

 70
     0
  1

 70
     0
  1

 70
     0
  1

 70
     0
  1

 70
     0
  1

 70
     0
  1

 70
     0
  1

 70
     0
  1

 70
     0
  1

 70
     0
  1

 70
     0
  1

 70
     0
  1

 70
     0
  1

 70
     0
  1

 70
     0
  1

 70
     0
  1

 70
     0
  1

 70
     0
  1

 70
     0
  1

 70
     0
  1

 70
     0
  1

 70
     0
  1

 70
     0
  1

 70
     0
  1

 70
     0
  1

 70
     0
  1

 70
     0
  1

 70
     0
  1

 70
     0
  1

 70
     0
  1

 70
     0
  1

 70
     0
  1

 70
     0
  1

 70
     0
  1

 70
     0
  1

 70
     0
  1

 70
     0
  1

 70
     0
  1

 70
     0
  1

 70
     0
  1

 70
     0
  1

 70
     0
  1

 70
     0
  1

 70
     0
  1

 70
     0
  1

 70
     0
  1

 70
     0
  1

 70
     0
  1

 70
     0
  1

 70
     0
  1

 70
     0
  1

 70
     0
  1

 70
     0
  1

 70
     0
  1

 70
     0
  1

 70
     0
  1

 70
     0
  1

 70
     0
  1

 70
     0
  1

 70
     0
  1

 70
     0
  1

 70
     0
  1

 70
     0
  1

 70
     0
  1

 70
     0
  1

 70
     0
  1

 70
     0
  1

 70
     0
  1

 70
     0
  1

 70
     0
  1

 70
     0
  1

 70
     0
  1

 70
     0
  1

 70
     0
  1

 70
     0
  1

 70
     0
  1

 70
     0
  1

 70
     0
  1

 70
     0
  1

 70
     0
  1

 70
     0
  1

 70
     0
  1

 70
     0
  1

 70
     0
  1

 70
     0
  1

 70
     0
  1

 70
     0
  1

 70
     0
  1

 70
     0
  1

 70
     0
  1

 70
     0
  1

 70
     0
  1

 70
     0
  1

 70
     0
  1

 70
     0
  1

 70
     0
  1

 70
     0
  0
XRECORD
  5
9F
102
{ACAD_REACTORS
330
78
102
}
330
78
100
AcDbXrecord
280
     1
 90
294128656
 90
     3871
 90
     1092
 90
       52
 90
        3
 90
      256
  1

  1

  1

  1

140
0.0
140
0.0
140
0.0
140
0.0
 70
    31
 70
     9
 70
    23
 70
    63
 70
    31
 70
     1
 70
     1
 70
     2
 70
     2
 70
     3
 70
     2
 70
     1
 70
     1
 70
     1
 70
     1
 70
     0
 70
     0
 70
     0
 70
     1
140
0.000001
140
50.0
 70
     2
140
1.0
140
1.0
140
1.0
140
100.0
140
50.0
140
0.0
 70
     8
 70
   210
 70
     1
 70
     1
140
500.0
140
20.0
 70
     5
 70
     2
 70
     1
 70
     4
 70
     3
 70
     2
 70
     2
 70
     3
 70
     2
 70
    80
 70
     1
140
5.0
140
1.0
 70
     1
 70
     0
 70
     0
140
5.0
140
1.0
 70
     1
 70
     0
 70
     0
 70
     0
 70
     0
140
25.0
  1

  1
$(N) $(L)x$(W)x$(T)
 70
     1
 70
     0
  1
$(N) $(T)x$(W)
 70
     1
 70
     0
140
2.0
  1
$(N) $(T)x$(W)
 70
     0
 70
     0
 70
     0
 70
     0
 70
     0
 70
     5
 70
     1
 70
     7
 70
     2
 70
     0
 70
     1
 70
     0
 70
     0
 70
     1
 70
     1
 70
     4
 70
     7
 70
     1
 70
     1
 70
     2
 70
     8
 70
     2
 70
     1
 70
     7
 70
     0
 70
     0
140
10.0
140
0.0
140
10.0
140
0.2
140
0.0
140
0.0
140
1.0
140
500.0
140
0.0
140
0.0
  1
Rd $(D)
  1
RO $(D)x$(T)
  1
RQ $(D)x$(T)
  1
RR $(W)x$(H)x$(T)
  1
4KT $(D)
  1
Blech $(W)x$(H)
 70
     0
 70
    -1
 70
    -1
 70
    -1
 70
     0
 70
     0
 70
     0
 70
     0
 70
     0
 70
     0
 70
     0
 70
     0
 70
     0
 70
     0
 70
     0
 70
     0
 70
     0
 70
     0
 70
     0
 70
     0
 70
     0
 70
     0
 70
     0
 70
     0
 70
     0
 70
     0
 70
     0
 70
     0
 70
     0
 70
     0
 70
     0
 70
     0
 70
     0
 70
     0
 70
     0
 70
     0
 70
     4
 70
     1
 70
   100
 70
  2000
 70
     0
 70
   253
 70
   253
 70
   253
 90
        4
 70
     1
 70
     1
 70
     1
 70
     0
 70
     0
 90
        0
140
3.149999999999999
140
1.0
140
1.0
 70
     1
 70
     0
 70
     0
 70
     1
 70
     2
  0
XRECORD
  5
55
102
{ACAD_REACTORS
330
54
102
}
330
54
100
AcDbXrecord
280
     1
  1
17.00.5205
  1
4:2:2009 by PS 17.2
  0
DICTIONARY
  5
4B3
330
35
100
AcDbDictionary
280
     1
281
     1
  3
ACAD_XREC_ROUNDTRIP
360
4B4
  0
DICTIONARY
  5
4B5
330
39
100
AcDbDictionary
280
     1
281
     1
  3
ACAD_XREC_ROUNDTRIP
360
4B6
  0
DICTIONARY
  5
A8
330
12
100
AcDbDictionary
280
     1
281
     1
  3
ACAD_XREC_ROUNDTRIP
360
A9
  0
DICTIONARY
  5
A6
330
11
100
AcDbDictionary
280
     1
281
     1
  3
ACAD_XREC_ROUNDTRIP
360
A7
  0
DICTIONARY
  5
AA
330
13
100
AcDbDictionary
280
     1
281
     1
  3
ACAD_XREC_ROUNDTRIP
360
AB
  0
DICTIONARY
  5
4AE
330
31
100
AcDbDictionary
280
     1
281
     1
  3
ACAD_ROUNDTRIP_2008_TABLESTYLE_CELLSTYLEMAP
360
4AF
  3
ACAD_XREC_ROUNDTRIP
360
4B2
  0
XRECORD
  5
4B4
102
{ACAD_REACTORS
330
4B3
102
}
330
4B3
100
AcDbXrecord
280
     1
102
SHADEPLOT
 70
     0
102
SHADEPLOTRESLEVEL
 70
     2
102
SHADEPLOTCUSTOMDPI
 70
   300
  0
XRECORD
  5
4B6
102
{ACAD_REACTORS
330
4B5
102
}
330
4B5
100
AcDbXrecord
280
     1
102
SHADEPLOT
 70
     0
102
SHADEPLOTRESLEVEL
 70
     2
102
SHADEPLOTCUSTOMDPI
 70
   300
  0
XRECORD
  5
A9
102
{ACAD_REACTORS
330
A8
102
}
330
A8
100
AcDbXrecord
280
     1
102
MATERIAL
148
0.0
149
0.0
149
0.0
 93
        0
 94
      127
282
     0
 72
     1
 77
     1
171
     1
175
     1
179
     1
273
     0
  0
XRECORD
  5
A7
102
{ACAD_REACTORS
330
A6
102
}
330
A6
100
AcDbXrecord
280
     1
102
MATERIAL
148
0.0
149
0.0
149
0.0
 93
        0
 94
      127
282
     0
 72
     1
 77
     1
171
     1
175
     1
179
     1
273
     0
  0
XRECORD
  5
AB
102
{ACAD_REACTORS
330
AA
102
}
330
AA
100
AcDbXrecord
280
     1
102
MATERIAL
148
0.0
149
0.0
149
0.0
 93
        0
 94
      127
282
     0
 72
     1
 77
     1
171
     1
175
     1
179
     1
273
     0
  0
CELLSTYLEMAP
  5
4AF
102
{ACAD_REACTORS
330
4AE
102
}
330
4AE
100
AcDbCellStyleMap
 90
        3
300
CELLSTYLE
  1
TABLEFORMAT_BEGIN
 90
        5
170
     1
 91
        0
 92
    32768
 62
   257
 93
        1
300
CONTENTFORMAT
  1
CONTENTFORMAT_BEGIN
 90
        0
 91
        0
 92
      512
 93
        0
300

 40
0.0
140
1.0
 94
        5
 62
     0
340
26
144
0.25
309
CONTENTFORMAT_END
171
     0
 94
        6
 95
        1
302
GRIDFORMAT
  1
GRIDFORMAT_BEGIN
 90
        0
 91
        1
 62
     0
 92
       -2
340
0
 93
        0
 40
0.045
309
GRIDFORMAT_END
 95
        2
302
GRIDFORMAT
  1
GRIDFORMAT_BEGIN
 90
        0
 91
        1
 62
     0
 92
       -2
340
0
 93
        0
 40
0.045
309
GRIDFORMAT_END
 95
        4
302
GRIDFORMAT
  1
GRIDFORMAT_BEGIN
 90
        0
 91
        1
 62
     0
 92
       -2
340
0
 93
        0
 40
0.045
309
GRIDFORMAT_END
 95
        8
302
GRIDFORMAT
  1
GRIDFORMAT_BEGIN
 90
        0
 91
        1
 62
     0
 92
       -2
340
0
 93
        0
 40
0.045
309
GRIDFORMAT_END
 95
       16
302
GRIDFORMAT
  1
GRIDFORMAT_BEGIN
 90
        0
 91
        1
 62
     0
 92
       -2
340
0
 93
        0
 40
0.045
309
GRIDFORMAT_END
 95
       32
302
GRIDFORMAT
  1
GRIDFORMAT_BEGIN
 90
        0
 91
        1
 62
     0
 92
       -2
340
0
 93
        0
 40
0.045
309
GRIDFORMAT_END
309
TABLEFORMAT_END
  1
CELLSTYLE_BEGIN
 90
        1
 91
        1
300
_TITLE
309
CELLSTYLE_END
300
CELLSTYLE
  1
TABLEFORMAT_BEGIN
 90
        5
170
     1
 91
        0
 92
        0
 62
   257
 93
        1
300
CONTENTFORMAT
  1
CONTENTFORMAT_BEGIN
 90
        0
 91
        0
 92
      512
 93
        0
300

 40
0.0
140
1.0
 94
        5
 62
     0
340
26
144
0.18
309
CONTENTFORMAT_END
171
     0
 94
        6
 95
        1
302
GRIDFORMAT
  1
GRIDFORMAT_BEGIN
 90
        0
 91
        1
 62
     0
 92
       -2
340
0
 93
        0
 40
0.045
309
GRIDFORMAT_END
 95
        2
302
GRIDFORMAT
  1
GRIDFORMAT_BEGIN
 90
        0
 91
        1
 62
     0
 92
       -2
340
0
 93
        0
 40
0.045
309
GRIDFORMAT_END
 95
        4
302
GRIDFORMAT
  1
GRIDFORMAT_BEGIN
 90
        0
 91
        1
 62
     0
 92
       -2
340
0
 93
        0
 40
0.045
309
GRIDFORMAT_END
 95
        8
302
GRIDFORMAT
  1
GRIDFORMAT_BEGIN
 90
        0
 91
        1
 62
     0
 92
       -2
340
0
 93
        0
 40
0.045
309
GRIDFORMAT_END
 95
       16
302
GRIDFORMAT
  1
GRIDFORMAT_BEGIN
 90
        0
 91
        1
 62
     0
 92
       -2
340
0
 93
        0
 40
0.045
309
GRIDFORMAT_END
 95
       32
302
GRIDFORMAT
  1
GRIDFORMAT_BEGIN
 90
        0
 91
        1
 62
     0
 92
       -2
340
0
 93
        0
 40
0.045
309
GRIDFORMAT_END
309
TABLEFORMAT_END
  1
CELLSTYLE_BEGIN
 90
        2
 91
        1
300
_HEADER
309
CELLSTYLE_END
300
CELLSTYLE
  1
TABLEFORMAT_BEGIN
 90
        5
170
     1
 91
        0
 92
        0
 62
   257
 93
        1
300
CONTENTFORMAT
  1
CONTENTFORMAT_BEGIN
 90
        0
 91
        0
 92
      512
 93
        0
300

 40
0.0
140
1.0
 94
        2
 62
     0
340
26
144
0.18
309
CONTENTFORMAT_END
171
     0
 94
        6
 95
        1
302
GRIDFORMAT
  1
GRIDFORMAT_BEGIN
 90
        0
 91
        1
 62
     0
 92
       -2
340
0
 93
        0
 40
0.045
309
GRIDFORMAT_END
 95
        2
302
GRIDFORMAT
  1
GRIDFORMAT_BEGIN
 90
        0
 91
        1
 62
     0
 92
       -2
340
0
 93
        0
 40
0.045
309
GRIDFORMAT_END
 95
        4
302
GRIDFORMAT
  1
GRIDFORMAT_BEGIN
 90
        0
 91
        1
 62
     0
 92
       -2
340
0
 93
        0
 40
0.045
309
GRIDFORMAT_END
 95
        8
302
GRIDFORMAT
  1
GRIDFORMAT_BEGIN
 90
        0
 91
        1
 62
     0
 92
       -2
340
0
 93
        0
 40
0.045
309
GRIDFORMAT_END
 95
       16
302
GRIDFORMAT
  1
GRIDFORMAT_BEGIN
 90
        0
 91
        1
 62
     0
 92
       -2
340
0
 93
        0
 40
0.045
309
GRIDFORMAT_END
 95
       32
302
GRIDFORMAT
  1
GRIDFORMAT_BEGIN
 90
        0
 91
        1
 62
     0
 92
       -2
340
0
 93
        0
 40
0.045
309
GRIDFORMAT_END
309
TABLEFORMAT_END
  1
CELLSTYLE_BEGIN
 90
        3
 91
        2
300
_DATA
309
CELLSTYLE_END
  0
XRECORD
  5
4B2
102
{ACAD_REACTORS
330
4AE
102
}
330
4AE
100
AcDbXrecord
280
     1
102
ACAD_ROUNDTRIP_PRE2007_TABLESTYLE
 90
      512
 91
        0
  1

 92
      512
 93
        0
  2

 94
      512
 95
        0
  3

  0
ENDSEC
  0
EOF
